PrimaNota.ru - самый крупный в мире бесплатный архив песенных текстов, аккордов, табулатур и нот


Suburban Scum - Misery Loves Company - таба, видео

Регистрация Запомнить меня
Войти через:  Facebook Google Twitter Vk Yandex Mail.ru

Suburban Scum - Misery Loves Company - таба, видео

Печатать
Просмотров: 67
Suburban Scum - Misery Loves Company
Xibalba/Suburban Scum Split
Tabbed By: Matt Tompkins (lpguitarplayer3)

Tuning - D Standard

GTR1:
D|--------------|
A|--------------|
F|--------------|
C|--2~~~~~~~~~--| Feedback builds, pickslide
G|--2~~~~~~~~~--|
D|--0~~~~~~~~~--|

GTR2:
D|----------------------------------------------------------------|
A|----------------------------------------------------------------|
F|----------------------------------------------------------------|
C|--4------5--3------3---2---3------4-----5---8------------3------|
G|--2------5--1------3---2---3------2-0-2-5---8--2-2-2-2-2-3-2-2--|
D|--2-0000-3--1-0000-1-0-0-0-1-0000-2-0-2-3-0-6--0-0-0-0-0-1-0-0--|
      ....      ....   .   .   ....   . .   .      . . . .   . .


D|--------------------------------------------------------------------|
A|--------------------------------------------------------------------|
F|--------------------------------------------------------------------|
C|--4------5--3------3---2---3---2-----4-----5---3--------------3-----| GTR1 plays part
G|--2------5--1------3---2---3---2-----4-0-2-5---1--22222-22-2223222--| at the end
D|--2-0000-3--1-0000-1-0-0-0-1-0-0-00--2-0-2-3-0-1--00000-00-0001000--|
      ....      ....   .   .   .   ..    . .   .    ..... .. ... ...

GTR1+2:

D|----------------------------------------------------------------|
A|----------------------------------------------------------------|
F|----------------------------------------------------------------|
C|--4------5--3------3---2---3------4-----5---3------------3------| x2
G|--2------5--1------3---2---3------2-0-2-5---1--2-2-2-2-2-3-2-2--|
D|--2-0000-3--1-0000-1-0-0-0-1-0000-2-0-2-3-0-1--0-0-0-0-0-1-0-0--|
      ....      ....   .   .   ....   . .   .      . . . .   . .


D|--------------------------------------------------------|
A|--------------------------------------------------------|
F|--------------------------------------------------------|
C|-2~~~~~~-3------8~~~~~~-3-----2~~~~~~-3------8~~~-9~~~--|
G|-2~~~~~~-3-3-3--6~~~~~~-3-3-3-2~~~~~~-3-3-3--6~~~-7~~~--|
D|-0~~~~~~-1-1-1--6~~~~~~-1-1-1-0~~~~~~-1-1-1--6~~~-7~~~--|
             . .            . .           . .


D|-------------------------------------------------------------|
A|-------------------------------------------------------------|
F|-------------------------------------------------------------|
C|-2-------3-4-3~~---------------2-------5-8-6~~---------------| x4
G|-2-------1-2-1~~---------------2-------3-6-4~~-----77776666--|
D|-0--0000-1-2-1~~-000011114444--0--0000-3-6-4~~-4444----------|
      ....         ............     ....         ............


D|----------------------------------------------------------------|
A|----------------------------------------------------------------|
F|----------------------------------------------------------------|
C|--4------5--3------3---2---3------4-----5---3------------3------| x2
G|--2------5--1------3---2---3------2-0-2-5---1--2-2-2-2-2-3-2-2--|
D|--2-0000-3--1-0000-1-0-0-0-1-0000-2-0-2-3-0-1--0-0-0-0-0-1-0-0--|
      ....      ....   .   .   ....   . .   .      . . . .   . .


D|--------------------------------------------------------|
A|--------------------------------------------------------|
F|--------------------------------------------------------|
C|-2~~~~~~-3------8~~~~~~-3-----2~~~~~~-3------8~~~-9~~~--|
G|-2~~~~~~-3-3-3--6~~~~~~-3-3-3-2~~~~~~-3-3-3--6~~~-7~~~--|
D|-0~~~~~~-1-1-1--6~~~~~~-1-1-1-0~~~~~~-1-1-1--6~~~-7~~~--|
             . .            . .           . .


D|--------------|
A|--------------|
F|--------------|
C|--2~~~~~~~~~--| feedback builds
G|--2~~~~~~~~~--|
D|--0~~~~~~~~~--|


D|-------------------|
A|-------------------|
F|-------------------|
C|--5-4-5-6-5-4-5-4--| x4
G|--3-2-3-4-3-2-3-2--|
D|-------------------|


D|---------------------------------|
A|---------------------------------|
F|---------------------------------|
C|--5---4---5---6---5---4---5---4--| x2
G|--3---2---3---4---3---2---3---2--| 
D|--3---2---3---4---3---2---3---2--|
    .   .   .   .   .   .   .   .

D|-------------------|
A|-------------------|
F|-------------------|
C|--5-4-5-6-5-4-5-4--| x4
G|--3-2-3-4-3-2-3-2--|
D|-------------------|


D|---------------------------------|
A|---------------------------------|
F|---------------------------------|
C|--5---4---5---6---5---4---5---4--| x2
G|--3---2---3---4---3---2---3---2--| 
D|--3---2---3---4---3---2---3---2--|
    .   .   .   .   .   .   .   .


GTR1:
D|----------------|
A|----------------|
F|----------------|
C|--5~~~~~~~~~~---| feedback builds,
G|--3~~~~~~~~~~---| divebomb on whammy bar
D|--3~~~~~~~~~~---|


GTR2:
D|--------------------------|
A|--------------------------|
F|--------------------------|
C|--4--3--4--5--4--3--4--3--| x4
G|--2--1--2--3--2--1--2--1--| 
D|--2--1--2--3--2--1--2--1--|
    .  .  .     .  .  .  .


GTR1+2:
D|--------------------------|
A|--------------------------|
F|--------------------------|
C|--4--3--4--5--4--3--4--3--| x8
G|--2--1--2--3--2--1--2--1--| 
D|--2--1--2--3--2--1--2--1--|
    .  .  .     .  .  .  .


D|-------------|
A|-------------|
F|-------------|
C|--2~~~~~~~~--|
G|--2~~~~~~~~--|
D|--0~~~~~~~~--|
Добавлено: 28.10.2015
Вам также может быть интересно:
Другие материалы по этой песне:
  • Аккорды и текст

Страница создана 28.10.2015
http://primanota.ru/suburban-scum/misery-loves-company-chords.htm
Привет, Гость.
Предлагаем пройти революционный курс по гитаре.
Подарок от PrimaNota.Ru, забирай!