PrimaNota.ru - самый крупный в мире бесплатный архив песенных текстов, аккордов, табулатур и нот


Suburban Scum - Little From The World - таба, видео

Регистрация Запомнить меня
Войти через:  Facebook Google Twitter Vk Yandex Mail.ru

Suburban Scum - Little From The World - таба, видео

Печатать
Просмотров: 64
Suburban Scum - Little From The World (Cold As Life cover)
Xibalba/Suburban Scum Split

Tuning - D Standard

Intro Riff:
D|-----------------------------------------------------|
A|-----------------------------------------------------|
F|-----------------------------------------------------|
C|----------------8-8--8-8-7---------------6-6--6-6-3--|
G|----------------6-6--6-6-5---------------4-4--4-4-3--|
D|--0-0-0-0-0-0-0-6-6--6-6-5-3-3-3-3-3-3-3-4-4--4-4-1--|
    . . . . . . .            . . . . . . .

D|---------------|
A|---------------|
F|---------------|
C|--2~~~~~~~~~~--|
G|--2~~~~~~~~~~--|
D|--0~~~~~~~~~~--|


Verse Riff:
D|-------------------|
A|-------------------|
F|-------------------|
C|-------------------| x12
G|--2-3-5-3-6-3-5-3--|
D|--0-1-3-1-4-1-3-1--|
    . . . .   . . .


Chorus Riff:
D|-----------------------------------------------------|
A|-----------------------------------------------------|
F|-----------------------------------------------------|
C|----------------5-5--5-5-6---------------3-3--3-3-3--| x4
G|----------------5-5--5-5-4---------------1-1--1-1-3--|
D|--0-0-0-0-0-0-0-3-3--3-3-4-6-6-6-6-6-6-6-1-1--1-1-1--|
    . . . . . . .            . . . . . . .


INTRO RIFF x4
VERSE RIFF x12

Outro:
D|---------|
A|---------|
F|---------|
C|--2-2~~--|
G|--2-2~~--|
D|--0-0~~--|
    .
Добавлено: 28.10.2015
Другие материалы по этой песне:
  • Аккорды и текст

Страница создана 28.10.2015
http://primanota.ru/suburban-scum/little-from-world-chords.htm
Привет, Гость.
Предлагаем пройти революционный курс по гитаре.
Подарок от PrimaNota.Ru, забирай!