PrimaNota.ru - самый крупный в мире бесплатный архив песенных текстов, аккордов, табулатур и нот


Suburban Scum - Intro - таба, видео

Регистрация Запомнить меня
Войти через:  Facebook Google Twitter Vk Yandex Mail.ru

Suburban Scum - Intro - таба, видео

Печатать
Просмотров: 82
Уроки эстрадного вокала в Санкт-Петербурге
Suburban Scum - Intro
Xibalba/Suburban Scum Split
Tabbed By: Matt Tompkins (lpguitarplayer3)

Tuning - D Standard

D|----------------------------------------------------------------|
A|----------------------------------------------------------------|
F|----------------------------------------------------------------|
C|--8--7--3--6~~~--8--7--3--6~~~--8--7--3--6~~~--8--7--3--2~~~~~--|
G|--8--7--3--6~~~--8--7--3--4~~~--8--7--3--6~~~--8--7--3--2~~~~~--|
D|--6--5--1--4~~~--6--5--1--4~~~--6--5--1--4~~~--6--5--1--0~~~~~--|


D|---------------------------------------------------------------------|
A|---------------------------------------------------------------------|
F|---------------------------------------------------------------------|
C|-------------------3~~------6~~--------------------5-4-6-5-7-6-8-7---| x2
G|-------------------1~~------4~~-2------------------5-4-4-3-7-6-6-5-2-|
D|--0000000000000000-1~~-0000-4~~-0-0000000000000000-3-2-4-3-5-4-6-5-0-|
    ................     ....       ................


D|-------------------------------------------------------------------|
A|-------------------------------------------------------------------|
F|-------------------------------------------------------------------|
C|--------------------3~~-----6~~--------------------5-4-6~-7-6-8~---| x2
G|--2-2-2-2-2-2-2-2-2-3~~-2-2-6~~-2------------------5-4-4~-7-6-6~-2-|
D|--0-0-0-0-0-0-0-0-0-1~~-0-0-4~~-0-0000000000000000-3-2-4~-5-4-6~-0-|
    . . . . . . . . .     . .       ................


D|---------------------------------------------------------------------|
A|---------------------------------------------------------------------|
F|---------------------------------------------------------------------|
C|-------------------3~~------6~~--------------------5-4-6-5-7-6-8-7---| x2
G|-------------------1~~------4~~-2------------------5-4-4-3-7-6-6-5-2-|
D|--0000000000000000-1~~-0000-4~~-0-0000000000000000-3-2-4-3-5-4-6-5-0-|
    ................     ....       ................
Добавлено: 28.10.2015
Другие материалы по этой песне:
  • Аккорды и текст

Страница создана 28.10.2015
http://primanota.ru/suburban-scum/intro-chords.htm
Привет, Гость.
Предлагаем пройти революционный курс по гитаре.
Подарок от PrimaNota.Ru, забирай!