PrimaNota.ru - самый крупный в мире бесплатный архив песенных текстов, аккордов, табулатур и нот


Suburban Legends - Cant Stop It - таба, видео

Регистрация Запомнить меня
Войти через:  Facebook Google Twitter Vk Yandex Mail.ru

Suburban Legends - Cant Stop It - таба, видео

Печатать
Просмотров: 87
-------------------------------------------------------------------------------
                             CAN'T STOP IT - Suburban Legends
-------------------------------------------------------------------------------
Tabbed by:
E-mail:

Tuning:EADGBe
Chorus;
  Here's...    I'm sick...  I lose...
e|3-3-3-33~333-7-7-7-77~777-7-7-7-753~33-33~3333-----    ---33-------------------|
B|3-3-3-33~333-7-7-7-77~777-8-8-8-875~55-44~4444-----    ---33-------------------|
G|4-4-4-44~444-7-7-7-77~777-9-9-9-975~55-55~5555----- x2 ---44-------------------|
D|5-5-5-55~555-9-9-9-99~999-9-9-9-975~55-55~5555-----    ---55-------------------|
A|5-----55~555-9-----99~999-7-----753~33-33~3333-----    ---33-------------------|
E|3-----33~333-7-----77~777--------------------------    ---33-------------------|
Verse 1;
e|3-3-3-33-3-3-3-3-33-3-3-3-3-33-3-3-3-3-33-3--------    ------------------------|
B|3-3-3-33-3-3-3-3-33-3-5-5-5-55-5-4-4-4-44-4--------    ------------------------|
G|4-4-4-44-4-4-4-4-44-4-5-5-5-55-5-5-5-5-55-5-------- x2 ------------------------|
D|5-5-5-55-5-5-5-5-55-5-5-5-5-55-5-5-5-5-55-5--------    ------------------------|
A|5----------5----------3----------3-----------------    ------------------------|
E|3----------3---------------------------------------    ------------------------|
Pre-chorus;
e|5~5555-3~3333-3333333333333333-------------------------------------------------|
B|5~5555-3~3333-5555555544444444-------------------------------------------------|
G|5~5555-4~4444-5555555555555555-------------------------------------------------|
D|7~7777-5~5555-5555555555555555-------------------------------------------------|
A|7~-77--5~-55--3333333333333333-------------------------------------------------|
E|5~-55--3~-33-------------------------------------------------------------------|
Chorus;
  Here's...    I'm sick...  lose my...
e|3-3-3-33~333-7-7-7-77~777-7-7-7-753~33-33~3333-----    ---33-------------------|
B|3-3-3-33~333-7-7-7-77~777-8-8-8-875~55-44~4444-----    ---33-------------------|
G|4-4-4-44~444-7-7-7-77~777-9-9-9-975~55-55~5555----- x2 ---44-------------------|
D|5-5-5-55~555-9-9-9-99~999-9-9-9-975~55-55~5555-----    ---55-------------------|
A|5-----55~555-9-----99~999-7-----753~33-33~3333-----    ---33-------------------|
E|3-----33~333-7-----77~777--------------------------    ---33-------------------|
Verse 2;
e|3-3-3-33-3-3-3-3-33-3-3-3-3-33-3-3-3-3-33-3--------    ------------------------|
B|3-3-3-33-3-3-3-3-33-3-5-5-5-55-5-4-4-4-44-4--------    ------------------------|
G|4-4-4-44-4-4-4-4-44-4-5-5-5-55-5-5-5-5-55-5-------- x4 ------------------------|
D|5-5-5-55-5-5-5-5-55-5-5-5-5-55-5-5-5-5-55-5--------    ------------------------|
A|5----------5----------3----------3-----------------    ------------------------|
E|3----------3---------------------------------------    ------------------------|
Pre-chorus;
e|5~5555-3~3333-3333333333333333-------------------------------------------------|
B|5~5555-3~3333-5555555544444444-------------------------------------------------|
G|5~5555-4~4444-5555555555555555-------------------------------------------------|
D|7~7777-5~5555-5555555555555555-------------------------------------------------|
A|7~-77--5~-55--3333333333333333-------------------------------------------------|
E|5~-55--3~-33-------------------------------------------------------------------|
Outro;
  Here's...    I'm sick...  lose my...
e|3-3-3-33~333-7-7-7-77~777-7-7-7-753~33-33~3333---------------------------------|
B|3-3-3-33~333-7-7-7-77~777-8-8-8-875~55-44~4444---------------------------------|
G|4-4-4-44~444-7-7-7-77~777-9-9-9-975~55-55~5555---------------------------------|x8
D|5-5-5-55~555-9-9-9-99~999-9-9-9-975~55-55~5555---------------------------------|
A|5-----55~555-9-----99~999-7-----753~33-33~3333---------------------------------|
E|3-----33~333-7-----77~777------------------------------------------------------|

The outro is played with varying strumming patterns, but you can play around with that yourself.

************************************

| /   slide up
| \   slide down
| h   hammer-on
| p   pull-off
| ~   vibrato
| +   harmonic
| x   Mute note
| b   Bend
| pb  Pre-bend
| br  Bend release
| pbr Pre-bend release
| brb Bend release bend

************************************
Добавлено: 08.10.2015
Другие материалы по этой песне:
  • Аккорды и текст

Страница создана 08.10.2015
http://primanota.ru/suburban-legends/cant-stop-it-chords.htm
Привет, Гость.
Предлагаем пройти революционный курс по гитаре.
Подарок от PrimaNota.Ru, забирай!