PrimaNota.ru - самый крупный в мире бесплатный архив песенных текстов, аккордов, табулатур и нот


Submersed - Hollow - текст песни, таба, видео

Регистрация Запомнить меня
Войти через:  Facebook Google Twitter Vk Yandex Mail.ru

Submersed - Hollow - текст песни, таба, видео

Печатать
Просмотров: 523
Авторы: TJ Davis, Kelan Luker, Donald Carpenter, Eric Friedman

Artist - Submersed
Song - Hollow
Album - In Due Time
www.submersed.com official site

No tabs up yet so here is a very accurate tab on Hollow.
Submersed is a newer band this is their first single, it rocks!
Any Questions E-mail Me at Stockcar23@hotmail.com

Important Notes!

All 0's on low E string PALM MUTED EXCEPT Chorus
Song is in C#minor
Drop D Down 1/2


Eb|----------------------------------------------------------------|
Bb|----------------------------------------------------------------|
Gb|---------------------------5---------7--------------------------|
Db|---7-5-----7-5----------5----5----7----7------------------------|
Ab|-------5-------5------3---------5-------------------------------|
Db|----------------------------------------------------------------|   x4


Guitar 1 plays this lead line over the 3rd repeat of the rhythmn above

Eb|--------------5-----------|
Bb|-------6--8---------------|
Gb|--------------------------|
Db|--------------------------|
Ab|--------------------------|
Db|--------------------------|


Guitar 1 plays this lead over 4th repeat of rhythm


Eb|-----------8--------------|
Bb|----6---8-----------------|
Gb|--------------------------|
Db|--------------------------|
Ab|--------------------------|
Db|--------------------------|


Verse
Both Guitars

Eb|--------------------------------|
Bb|--------------------------------|
Gb|---------7----------5-5/7-------|x4
Db|-0-00-0--7--0-00-0--5-5/7-------|
Ab|-0-00-0--5--0-00-0--3-3/5-------|
Db|-0-00-0-----0-00-0--------------|

Lead Part on Second time verse is played after first
palm mutes
Eb|-------------------------------------------|
Bb|-------------------------------------------|
Gb|-------------------------------------------|
Db|----5p0------------------------------------|
Ab|---------5p0--3p0--5-----------------------|
Db|-------------------------------------------|

Lead After Second Palm Mute in Verse

Eb|------------------------------|
Bb|------------------------------|
Gb|------------------------------|
Db|------7p5h7-------------------|
Ab|------------------------------|
Db|------------------------------|

Repeat Verse Parts again, then go into chorus

Chorus

Lead Guitar

Eb|----------------------------8----------------------|
Bb|-------------6--8----6---8-------------------------|
Gb|---------------------------------------5h7---------|
Db|--0---3-----------------------5----5h7-------------|
Ab|--0---3-----------------------5--------------------|
Db|--0---3-----------------------5--------------------|


Rhythm

Eb|------------------------------------------------|
Bb|------------------------------------------------|
Gb|----------5----------------------------5h7------|
Db|--0---3---5~~~~~~~~~~~~~~-----5----5h7----------|
Ab|--0---3---3~~~~~~~~~~~~~~-----5-----------------|
Db|--0---3---5~~~~~~~~~~~~~~-----5-----------------|

Repeat Verse

During Verse Repeat this Riff with a small variation
during all but first repeat

Eb|----------------------------------|
Bb|----------------------------------|
Gb|---------------------------5--5/7-|
Db|----5p0--------------------5--5/7-|
Ab|---------5p0--3p0--5-------3--3/5-|
Db|----------------------------------|


Bridge

Both Guitars

Eb|------------------------------------------------|
Bb|------------------------------------------------|
Gb|------------2-----5--2----2---------------------|
Db|-00-------------------------5---2---2-3---------| x3
Ab|-00---------------------------------------------|
Db|-00----0-00---00-------00-----00--00------------|

Lead Over First Bridge Riff 2nd Time Only

Eb|-----------------------------------------|
Bb|-----6p5-----6p5-------------------------|
Gb|---------7p5-----7p5---------------------|
Db|-----------------------------------------|
Ab|-----------------------------------------|
Db|-----------------------------------------|

After 3rd Time on First Bridge Riff
Both Guitars

Eb|----------------------------------------------|
Bb|----6/8/10/-11/13-----------------------------|
Gb|----5/7/9-/10-/12-----------------------------|
Db|----3/5/7-/8--/10-----------------------------|
Ab|----3/5/7-/8--/10-----------------------------|
Db|----3/5/7-/8--/10-----------------------------|

Eb|---------------8-----------------------|
Bb|-----6--8--6-8-------------------------|
Gb|-5-------------------------------------|
Db|-5----------------5--------------------|
Ab|-3----------------5--------------------|
Db|-5----------------5--------------------|

Eb|--------------------------------------------|
Bb|---3----3-----------------------------------|
Gb|---2--5-2----------5h7----------------------|
Db|-0-0--5-0-3--5--5h7-------------------------|
Ab|-0----3---3--5------------------------------|
Db|-0----5---3--5------------------------------|

Back To Chorus
When the lead in the Chorus is played,
the lead part is changed a little

Eb|---5-------------------------------------|
Bb|-----8p6-8p6-----------------------------|
Gb|-------------7---------------------------|
Db|-----------------------------------------|
Ab|-----------------------------------------|
Db|-----------------------------------------|


Play this after Chorus

Eb|---------------------------------------|
Bb|---------------------------------------|
Gb|----5/7--------------------------------|
Db|--0-5/7--------------------------------|
Ab|--0-3/5--------------------------------|(sliding power chords 5 times)
Db|--0------------------------------------|


Eb|---------------------------------------------|
Bb|---------------------------------------------|
Gb|---------------------------------------------|
Db|--00--3-3-00-5-5-----------------------------|
Ab|--00--3-3-00-5-5-----------------------------|
Db|--00--3-3-00-5-5-----------------------------|

Play Above 2 Parts 4 times

On 4th time, play the part with the sliding power chords
but not the E and F# power chords beneath. Play part below

Eb|-------------------------------------------------|
Bb|--6/8/10/13/15-----------------------------------|
Gb|--5/7/9-/12/14-----------------------------------|
Db|--3/5/7-/10/12-------00--------------------------|
Ab|--3/5/7-/10/12-------00--------------------------|
Db|--3/5/7-/10/12-------00--------------------------|


And Thats It
Добавлено: 04.07.2012
Другие материалы по этой песне:

Страница создана 03.04.2012
http://primanota.ru/submersed/hollow-chords.htm
Привет, Гость.
Предлагаем пройти революционный курс по гитаре.
Подарок от PrimaNota.Ru, забирай!