PrimaNota.ru - самый крупный в мире бесплатный архив песенных текстов, аккордов, табулатур и нот


Sublime - What I Got Reprise - аккорды и текст, видео

Регистрация Запомнить меня
Войти через:  Facebook Google Twitter Vk Yandex Mail.ru

Sublime - What I Got Reprise - аккорды и текст, видео

Печатать
Просмотров: 91
What I Got Reprise
Sublime
                     Sublime What I Got (Reprise)with outro
Intro starts off slightly quiet
      listen to the song and play along to learn the timing really good
E----------------------------------------------------------------------------|
B-----3-------3--------3-------3-------3------3------3-----------------------|
G-------2-------0--------2-------0-------2------0------2---------------------|
D--00---------------00--------------00-------------00------------------------|
A----------------------------------------------------------------------------|
E----------33---------------33--------------33-------------------------------|


          Solo
E-------------------------|-----------|-------------------------10------------|
B-----------10------------|-----------|--------------------10h12--12-12-10----|
G-----------10------------|--11--9-7-7|Let Ring a lil-10h11-------------------|
D-----10-12----12-10-10h12|--12-10-9-6|---------------------------------------|
A--12---------------------|-----------|---------------------------------------|
E-------------------------|-----------|---------------------------------------|



E-----------------------------------------------------------------------------|
B--12-10b---------------------------------------------------------------------|
G---------12b-10-12-10--------------------------------------------------------|
D----------------------12-12--------------------------------------------------|
A-----------------------------------------------------------------------------|
E-----------------------------------------------------------------------------|

Keep playing these two chords till you get to the end of the song
E---2--2--3--3--2--2---------------------------------------------------------|
B---3--3--3--3--3--3---------------------------------------------------------|
G---2--2--0--0--2--2---------------------------------------------------------|
D---0--0--0--0--0--0---------------------------------------------------------|
A---x--x--2--2--x--x---------------------------------------------------------|
E---x--x--3--3--x--x---------------------------------------------------------|


                          OUTRO!
E-------------------------|--------|---|--------|-------------------------|
B--7-----7-----7-----7----|7b-7b-7b|---|--------|-------------------------|
G----7-----7-----7-----7--|--------|9-7|-7-5-4-2|let ring a lil 2-4-2-----|
D------7-----7-----7-----7|--------|---|--------|-------------------------|
A-------------------------|--------|---|--------|-------------------------|
E-------------------------|--------|---|--------|-------------------------|



               Listen to the reprise version to hear how long to let these               
                                    .              ring
E---------------|-----------|------------8-7-7-5---------------------------|
B--7-----7-----7|-----------|---------7b-----------------------------------|
G----7-----7----|-----------|----------------------------------------------|
D------7-----7--|-----------|--------------------9-------------------------|
A---------------|--5-3-3-2-0|-2-3-2-0------------5-------------------------|
E---------------|-----------|----------------------------------------------|
Добавлено: 08.02.2014
Другие материалы по этой песне:

Страница создана 03.03.2012
http://primanota.ru/sublime/what-i-got-reprise-chords.htm
Привет, Гость.
Предлагаем пройти революционный курс по гитаре.
Подарок от PrimaNota.Ru, забирай!