PrimaNota.ru - самый крупный в мире бесплатный архив песенных текстов, аккордов, табулатур и нот


Sublime - What Happened - аккорды и текст, таба, бас-таба, видео

Регистрация Запомнить меня
Войти через:  Facebook Google Twitter Vk Yandex Mail.ru

Sublime - What Happened - аккорды и текст, таба, бас-таба, видео

Печатать
Просмотров: 227
Уроки эстрадного вокала в Санкт-Петербурге
What Happened
Sublime
-------------------------------------------------------------------------------
                             What Happened? - Sublime
-------------------------------------------------------------------------------
Tabbed by: mike
Email: jiro_the_fish91@hotmail.com

Tuning: Standard (EADGBe)

Chords:
   B    A    Ab   A5   E5   F#5  B5
e--7----5----4------------------------|
B--7----5----4------------------------|
G--8----6----5---------9--------------|
D--9----7----6----7----9----4----9----|
A-----------------7----7----4----9----|
E-----------------5---------2----7----|

Intro:

Slide between A and B for the first four bars

e--5/7--7--7--7--7\5----|
B--5/7--7--7--7--7\5----|
G--6/8--8--8--8--8\6----|
D--7/9--9--9--9--9\7----|
A-----------------------|
E-----------------------|

then for the rest of the intro its just a B chord played with a ska rhythm (but do 
the A/B slide thing a few times)

when he says "3, 4" its just the same but to a faster tempo

Verse

B                   Ab
Wake up in the morning
B                   Ab
clock says half past one
B                   Ab
I have no sunglasses 
B                   Ab
as I step into the sun

A5                  E5
There's no recollection
A5                  F#5
of the evil things I've done
B5                  A5                   G5
my head feels like I must have had some fun

   B                            B  B  A  B
e---------------------------------------------|
B---------------------------------------------|
G---------------------------------------------|
D---------------------------------------------|
A--0--2--2--0--4--0--2-------0--2--2--0--2----|
E-----------------------2---------------------|




what happened?

the solo is in B minor, i dont know it but i just improvise it
here's a scale if you dont know it

e----------------------------------7--10-|
B---------------------------7--10--------|
G---------------------7--9---------------|
D---------------7--9---------------------|
A---------7--9---------------------------|
E--7--10---------------------------------|


B                  Ab
Last thing I remember
B                  Ab
I was chillin' at a party
B                  Ab
pinchin' girlie's asses
B                  Ab
I was drinking recklessly

A5                 E5
I know that I did something
A5                 F#5
Lord what could it be?
B5                        A5                   F#5
woke up in the morning and all my friends hate me


   B                            B  B  A  B
e---------------------------------------------|
B---------------------------------------------|
G---------------------------------------------|
D---------------------------------------------|
A--0--2--2--0--4--0--2-------0--2--2--0--2----|
E-----------------------2---------------------|






what happened?



then theres another 2 guitar solos and a sax solo in the same key as the last one


B                Ab
What am I doing here?
B                Ab
who is this girl in my bed?
B                Ab
what is this shit on my face?
B                Ab
my god, what is that awful smell?
A5              E5
She may be an angel
A5              F#5
she may be a queen
          B5                         A5         F#5
she might be black, white, american, indian or japanese

   B                            B  B  A  B
e---------------------------------------------|
B---------------------------------------------|
G---------------------------------------------|
D---------------------------------------------|
A--0--2--2--0--4--0--2-------0--2--2--0--2----|
E-----------------------2---------------------|




what happened?


*another guitar solo*


B                      Ab
Threw a bottle at the bouncer
B                      Ab
didn't think that he was cool
B                      Ab
pissed in someones drink
B                      Ab
and threw a bike into a pool

A5                     E5
drivin' down the side walk
A5                     F#5
like a drunken possesed fool
B5            A5              F#5
I broke every single traffic rule

   B                            B  B  A  B
e---------------------------------------------|
B---------------------------------------------|
G---------------------------------------------|
D---------------------------------------------|
A--0--2--2--0--4--0--2-------0--2--2--0--2----|
E-----------------------2---------------------|

oh, what happened?


   B                            B  B  A  B
e---------------------------------------------|
B---------------------------------------------|
G---------------------------------------------|
D---------------------------------------------|
A--0--2--2--0--4--0--2-------0--2--2--0--2----|
E-----------------------2---------------------|


what happened? 


   B                            B  B  A  B
e---------------------------------------------|
B---------------------------------------------|
G---------------------------------------------|
D---------------------------------------------|
A--0--2--2--0--4--0--2-------0--2--2--0--2----|
E-----------------------2---------------------|


Let's go!!!


A5              E5
She may be an angel
A5              F#5
she may be a queen
          B                          A               F#5
she might be black, white, american, indian or japanese

| /  slide up
| \  slide down
| h  hammer-on
| p  pull-off
| ~  vibrato
| +  harmonic
| x  Mute note
===============================================================================
Добавлено: 22.04.2012
Другие материалы по этой песне:

Страница создана 22.04.2012
http://primanota.ru/sublime/what-happened-chords.htm
Привет, Гость.
Предлагаем пройти революционный курс по гитаре.
Подарок от PrimaNota.Ru, забирай!