PrimaNota.ru - самый крупный в мире бесплатный архив песенных текстов, аккордов, табулатур и нот


Sublime - Crazy Fool Foolish Fool - таба, видео

Регистрация Запомнить меня
Войти через:  Facebook Google Twitter Vk Yandex Mail.ru

Sublime - Crazy Fool Foolish Fool - таба, видео

Печатать
Просмотров: 21
-------------------------------------------------------------------------------
                             Sublime - Crazy Fool / Foolish Fool
-------------------------------------------------------------------------------

Tabbed by: Apollonia93

Tuning: Standard guitar - EADGbe

Tab legend: p = pull off, () = optional chords

This song is known as either Crazy Fool (Pure Anus bootleg) or Foolish Fool
(Everything Under The Sun: Sublime 
Rarities Boxset and Acoustic: Bradley Nowell & Friends ), multiple versions exist.
The differences are minor and you will be able to figure them out with this tab and the optional
chords; which would be used as one stroke passing chords). Play around with up and down strokes.
BTW, the music would later be used for the song 
'Get Ready' from the band's 1996 eponymous album.

The intro is in F#m, in some versions Brad plays this little lick along with the Bass:

                                               E
                 
e|----------------14------    -----------------7--|
B|----------------14------    -----------------9--|
G|------------------------ x3 -----------------9--|
D|------------------------    -----------------9--|
A|---0-2-0----------------    ---0-2-0---------7--|
E|-2-------2p0-2----------    -2-------2p0-2---7--|


'Crazy, crazy' ...

   A                 C#m            Cm  Bm       A

e|-5-5-5-------------9--9--9--9----(8)--7-7-7-7--5-5-5-5--|
B|-5-5-5-------------9--9--9--9----(8)--7-7-7-7--5-5-5-5--|
G|-6-6-6-------------9--9--9--9----(8)--7-7-7-7--6-6-6-6--|
D|-7-7-7-------------11-11-11-11---(10)-9-9-9-9--7-7-7-7--| x2
A|-7-7-7-------------11-11-11-11---(10)-9-9-9-9--7-7-7-7--|
E|-5-5-5--5-5-7-8-9--9--9--9--9----(8)--7-7-7-7--5-5-5-5--|


'If he thinks that he' ...

   A         E         D#  D        C#m      Cm   Bm       A

e|-5-5-5-5---7-7-7-7--(6)--5-5-5-5--4-4-4-4--(3)--2-2-2-2--5-5-5-5--|
B|-5-5-5-5---9-9-9-9--(8)--7-7-7-7--5-5-5-5--(4)--3-3-3-3--5-5-5-5--|
G|-5-5-5-5---9-9-9-9--(8)--7-7-7-7--6-6-6-6--(5)--4-4-4-4--5-5-5-5--|
D|-7-7-7-7---9-9-9-9--(8)--7-7-7-7--6-6-6-6--(5)--4-4-4-4--7-7-7-7--|
A|-7-7-7-7---7-7-7-7--(6)--5-5-5-5--4-4-4-4--(3)--2-2-2-2--7-7-7-7--|
E|-5-5-5-5---7-7-7-7--(6)--5-5-5-5--4-4-4-4--(3)--2-2-2-2--5-5-5-5--|


'Foolish, foolish' ...

   A                 C#m           Cm   Bm       A

e|-5-5-5-------------9--9--9--9----(8)--7-7-7-7--5-5-5-5--|
B|-5-5-5-------------9--9--9--9----(8)--7-7-7-7--5-5-5-5--|
G|-6-6-6-------------9--9--9--9----(8)--7-7-7-7--6-6-6-6--|
D|-7-7-7-------------11-11-11-11---(10)-9-9-9-9--7-7-7-7--|
A|-7-7-7-------------11-11-11-11---(10)-9-9-9-9--7-7-7-7--|
E|-5-5-5--5-5-7-8-9--9--9--9--9----(8)--7-7-7-7--5-5-5-5--|


'If he thinks that he' ...

   A         E         D#  D        C#m      Cm   Bm       A

e|-5-5-5-5---7-7-7-7--(6)--5-5-5-5--4-4-4-4--(3)--2-2-2-2--5-5-5-5--|
B|-5-5-5-5---9-9-9-9--(8)--7-7-7-7--5-5-5-5--(4)--3-3-3-3--5-5-5-5--|
G|-5-5-5-5---9-9-9-9--(8)--7-7-7-7--6-6-6-6--(5)--4-4-4-4--5-5-5-5--|
D|-7-7-7-7---9-9-9-9--(8)--7-7-7-7--6-6-6-6--(5)--4-4-4-4--7-7-7-7--|
A|-7-7-7-7---7-7-7-7--(6)--5-5-5-5--4-4-4-4--(3)--2-2-2-2--7-7-7-7--|
E|-5-5-5-5---7-7-7-7--(6)--5-5-5-5--4-4-4-4--(3)--2-2-2-2--5-5-5-5--|


'My love for you' ...         'Is this the way it's supposed to be' ...

   F#m                          E

e|-2-2-2-2---------------     --7-7-7-7--|
B|-2-2-2-2---------------     --9-9-9-9--|
G|-2-2-2-2--------------- x3  --9-9-9-9--|
D|-4-4-4-4---------------     --9-9-9-9--|
A|-4-4-4-4----0-2-0------     --7-7-7-7--|
E|-2-2-2-2--2-------2p0--     --7-7-7-7--|


'Foolish, foolish' ...

   A                 C#m           Cm   Bm       A

e|-5-5-5-------------9--9--9--9----(8)--7-7-7-7--5-5-5-5--|
B|-5-5-5-------------9--9--9--9----(8)--7-7-7-7--5-5-5-5--|
G|-6-6-6-------------9--9--9--9----(8)--7-7-7-7--6-6-6-6--|
D|-7-7-7-------------11-11-11-11---(10)-9-9-9-9--7-7-7-7--|
A|-7-7-7-------------11-11-11-11---(10)-9-9-9-9--7-7-7-7--|
E|-5-5-5--5-5-7-8-9--9--9--9--9----(8)--7-7-7-7--5-5-5-5--|


'If he thinks that he' ...

   A         E         D#  D        C#m      Cm   Bm       A

e|-5-5-5-5---7-7-7-7--(6)--5-5-5-5--4-4-4-4--(3)--2-2-2-2--5-5-5-5--|
B|-5-5-5-5---9-9-9-9--(8)--7-7-7-7--5-5-5-5--(4)--3-3-3-3--5-5-5-5--|
G|-5-5-5-5---9-9-9-9--(8)--7-7-7-7--6-6-6-6--(5)--4-4-4-4--5-5-5-5--|
D|-7-7-7-7---9-9-9-9--(8)--7-7-7-7--6-6-6-6--(5)--4-4-4-4--7-7-7-7--|
A|-7-7-7-7---7-7-7-7--(6)--5-5-5-5--4-4-4-4--(3)--2-2-2-2--7-7-7-7--|
E|-5-5-5-5---7-7-7-7--(6)--5-5-5-5--4-4-4-4--(3)--2-2-2-2--5-5-5-5--|


   A                 C#m           Cm   Bm       A

e|-5-5-5-------------9--9--9--9----(8)--7-7-7-7--5-5-5-5--|
B|-5-5-5-------------9--9--9--9----(8)--7-7-7-7--5-5-5-5--|
G|-6-6-6-------------9--9--9--9----(8)--7-7-7-7--6-6-6-6--|
D|-7-7-7-------------11-11-11-11---(10)-9-9-9-9--7-7-7-7--|
A|-7-7-7-------------11-11-11-11---(10)-9-9-9-9--7-7-7-7--|
E|-5-5-5--5-5-7-8-9--9--9--9--9----(8)--7-7-7-7--5-5-5-5--|


   F#m                   E

e|-2-2-2-2---------------7-7-7-7--|
B|-2-2-2-2---------------9-9-9-9--|
G|-2-2-2-2---------------9-9-9-9--|
D|-4-4-4-4---------------9-9-9-9--|
A|-4-4-4-4----0-2-0------7-7-7-7--|
E|-2-2-2-2--2-------2p0--7-7-7-7--|


'Foolish, fool, you've been fooled' ...

   A                 E            D            E

e|-5-5-5-5-----------9--9--9--9---10-10-10-10--12-12-12-12--|
B|-5-5-5-5-----------9--9--9--9---10-10-10-10--12-12-12-12--|
G|-6-6-6-6-----------9--9--9--9---11-11-11-11--13-13-13-13--|
D|-7-7-7-7-----------11-11-11-11--12-12-12-12--14-14-14-14--|
A|-7-7-7-7-----------11-11-11-11--12-12-12-12--14-14-14-14--|
E|-5-5-5-5-5-5-7-8-9-9--9--9--9---10-10-10-10--12-12-12-12--|


   A                 C#m           Cm   Bm       A

e|-5-5-5-------------9--9--9--9----(8)--7-7-7-7--5-5-5-5--|
B|-5-5-5-------------9--9--9--9----(8)--7-7-7-7--5-5-5-5--|
G|-6-6-6-------------9--9--9--9----(8)--7-7-7-7--6-6-6-6--|
D|-7-7-7-------------11-11-11-11---(10)-9-9-9-9--7-7-7-7--|
A|-7-7-7-------------11-11-11-11---(10)-9-9-9-9--7-7-7-7--|
E|-5-5-5--5-5-7-8-9--9--9--9--9----(8)--7-7-7-7--5-5-5-5--|

                                               
                 
e|----------------14--|    
B|----------------14--|    
G|--------------------| x9 
D|--------------------|    
A|---0-2-0------------|    
E|-2-------2p0-2------|
Добавлено: 01.10.2015
Другие материалы по этой песне:
  • Аккорды и текст

Страница создана 01.10.2015
http://primanota.ru/sublime/crazy-fool-foolish-fool-chords.htm
Привет, Гость.
Предлагаем пройти революционный курс по гитаре.
Подарок от PrimaNota.Ru, забирай!