PrimaNota.ru - самый крупный в мире бесплатный архив песенных текстов, аккордов, табулатур и нот


Sublime - Ballad Of Johnny Butte - бас-таба, видео

Регистрация Запомнить меня
Войти через:  Facebook Google Twitter Vk Yandex Mail.ru

Sublime - Ballad Of Johnny Butte - бас-таба, видео

Печатать
Просмотров: 61
This isn't 100% correct, but it's how i play it live and it sounds pretty good. i looked 
the other tab for this on here, and it wasn't 100% right either, so this is my attempt 
it.

Standard Tuning (EADG)

Verse

G.-------------------------------------------------|
D.-------------------------------------------------|
A.---6h7--------6h7-----7/8-8---8-8-7b--2h3-2------|
E.-5-----5---5-5----5-5-------8--------------------|

G.-------------------------------------------------|
D.---------------------------------------9h10-9----|
A.---6h7--------6h7-----7/8-8---8-8-7b-------------|
E.-5-----5---5-5----5-5-------8--------------------|

G.-------------------------------------------------|
D.-------------------------------------------------|
A.---6h7--------6h7-----7/8-8---8-8-7b--3-2--------|
E.-5-----5---5-5----5-5-------8-------------5------|

G.-------------------------------------------------|
D.-------------------------------------------------|
A.---6h7--------6h7-----7/8-8---8-8-7/1------------|
E.-5-----5---5-5----5-5-------8--------------------|

Chorus

G.------------------------------------|
D.--------5h7-7-5---------------------|
A.---7--7--------7-8----88-7/1-3-2----|
E.5------------------88------------5--|

give me some comments, i wanna know if this was a decent tab. thanks.
Добавлено: 18.09.2013
Другие материалы по этой песне:
  • Аккорды и текст

Страница создана 18.09.2013
http://primanota.ru/sublime/ballad-of-johnny-butte-chords.htm
Привет, Гость.
Предлагаем пройти революционный курс по гитаре.
Подарок от PrimaNota.Ru, забирай!