PrimaNota.ru - самый крупный в мире бесплатный архив песенных текстов, аккордов, табулатур и нот


Sublime - April 26,1992 - текст песни, бас-таба, видео

Регистрация Запомнить меня
Войти через:  Facebook Google Twitter Vk Yandex Mail.ru

Sublime - April 26,1992 - текст песни, бас-таба, видео

Печатать
Просмотров: 93


April 26 1992
Sublime


into:
||------------------3------------------------------------||
||--5-5-0-5-3-3----0-3----5-5-0-5-1-1-1-1-5-5-5-5--------||
||-------------------------------------------------------||
||-------------------------------------------------------||
2
then it goes like this during the verses:
||------------------------------------------------------------------------------------||
||------5---5---5---5--5---5---5---5---0---0----0---0---0---0---0---0---5--5--5---5---||
||------------------------------------------------------------------------------------||
||------------------------------------------------------------------------------------||

3
then after that it goes:
||---------------------------------------------------------------------------||
||---------------------------------------------------------------------------||
||----0--0---3-5--0-0-0-0-3-5----0-0-3-5---0-0-0-0-3-5-----------------------||
||---------------------------------------------------------------------------||
4
||------------------------0-3------------------------------------------------||
||----5--0--5-4-3--3-------3-----5-5-0-5--1-1-1-1-3-3-3-3--------------------||
||---------------------------------------------------------------------------||
||---------------------------------------------------------------------------||

the song goes 11223334122333

e-mail:  RumbaFlex


Добавлено: 11.01.2014
Другие материалы по этой песне:
  • Аккорды и текст

Страница создана 26.06.2012
http://primanota.ru/sublime/april-261992-chords.htm
Привет, Гость.
Предлагаем пройти революционный курс по гитаре.
Подарок от PrimaNota.Ru, забирай!