PrimaNota.ru - самый крупный в мире бесплатный архив песенных текстов, аккордов, табулатур и нот


Subhumans - The Day The Country Died Album - таба, видео

Регистрация Запомнить меня
Войти через:  Facebook Google Twitter Vk Yandex Mail.ru

Subhumans - The Day The Country Died Album - таба, видео

Печатать
Просмотров: 47
-------------------------------------------------------------------------------
	 	THE DAY THE COUNTRY DIED (FULL ALBUM) - Subhumans
-------------------------------------------------------------------------------

By: WBinder007@aol.com

Okay, I think this tab is very accurate on the rhythm parts, but not so
much for
the solos. Well, and also "Black & White," that one I just couldn't seem to
get.
Also, I'm tabbing this with power chords, but full barre's work great too.
Oh, and
DON'T FUCKING STEAL THIS TAB! I put a lot of time into this.
     LEGEND:
 . = palm mute
 * = staccato
 / = slide up
 \ = slide down
 ~ = hold note
 X = left-hand mute
 b = bend
pb = pre-bend note before playing
rb = release bend
 h = hammer-on
 p = pull-off
 v = vibrato
 ! = accentuate palm mute
 T = tremolo pick note (i.e. constantly pick note as fast as you can)

All songs originally by the Subhumans

Standard tuning on all songs


------------------------------------------------------------------------------
	 		 	1.) ALL GONE DEAD
------------------------------------------------------------------------------
INTRO:
e|---------------------------------------------------------------------------|
B|---------------------------------------------------------------------------|
G|-9-9\8-8\7-7\6-6\5-5\4-4\3-3\2-2/9-9\8-8\7-7\6-6\5-5\4-4\3-3\2-2/9~---9~---|
D|-9-9\8-8\7-7\6-6\5-5\4-4\3-3\2-2/9-9\8-8\7-7\6-6\5-5\4-4\3-3\2-2/9~---9~---|
A|-7-7\6-6\5-5\4-4\3-3\2-2\1-1\0-0/7-7\6-6\5-5\4-4\3-3\2-2\1-1\0-0/7~---7~---|
E|---------------------------------------------------------------------------|

VERSE:
e|---------------------------------------------------------------------------|
B|---------------------------------------------------------------------------|
G|-9-9--8-8--7-7--6-6--5-5--4-4--3-3--2-2------------------------------------|
D|-9-9--8-8--7-7--6-6--5-5--4-4--3-3--2-2------------------------------------|
A|-7-7--6-6--5-5--4-4--3-3--2-2--1-1--0-0------------------------------------|
E|---------------------------------------------------------------------------|
   . .  . .  . .  . .  . .  . .  . .  . .
CHORUS:
e|---------------------------------------------------------------------------|
B|---------------------------------------------------------------------------|
G|-9--9-9/10---9--9-9/10---9--9-9/10---9--9-9/10--9-10--9-10--9-10--9-10-----|
D|-9--9-9/10---9--9-9/10---9--9-9/10---9--9-9/10--9-10--9-10--9-10--9-10-----|
A|-7--7-7/-8---7--7-7/-8---7--7-7/-8---7--7-7/-8--7--8--7--8--7--8--7--8-----|
E|---------------------------------------------------------------------------|

------------------------------------------------------------------------------
	 		  	2.) ASHTRAY DIRT
------------------------------------------------------------------------------
INTRO/VERSE:
e|---------------------------------------------------------------------------|
B|---------------------------------------------------------------------------|
G|--------12-12--14-14--13-13-13-13------------------------------------------|
D|-14-14--12-12--14-14--13-13-13-13------------------------------------------|
A|-14-14--10-10--12-12--11-11-11-11------------------------------------------|
E|-12-12---------------------------------------------------------------------|

CHORUS:
e|---------------------------------------------------------------------------|
B|---------------------------------------------------------------------------|
G|-9-9--7--7-7-7--5-5--7--7-7-7----------------------------------------------|
D|-9-9--7--7-7-7--5-5--7--7-7-7----------------------------------------------|
A|-7-7--5--5-5-5--3-3--5--5-5-5----------------------------------------------|
E|---------------------------------------------------------------------------|

SOLO:
B|-7b-7b-7b-7b-7b/12b-12b-12b-12b-12b/14b-14b-14b-14b-14b\10b-10b-10b-10b-10b|
G|--7-7-7-7--7-7-7-7--7-7-7-7--7-7-7-7--7-7-7-7--7-7-7-7--7-7-7-7--7-7-7-7---|

B|-------10-10-12-12-11-11-11-11--------10-10-12-12-11-11-11-11--------------|
G|-11-11--------------------------11-11--------------------------------------|

B|-------10-10-12-12-11-11-11-11--------10-10-12-12-12-12-12-12-12-12--------|
G|-11-11--------------------------11-11--------------------------------------|

G|-------12-12-14-14-13-13-13-13--------12-12-14-14-13-13-13-13--------------|
D|-14-14--------------------------14-14--------------------------------------|

------------------------------------------------------------------------------
	 		  	3.) KILLING
------------------------------------------------------------------------------
INTRO/VERSE:
e|---------------------------------------------------------------------------|
B|---------------------------------------------------------------------------|
G|---------------------------------------------------------------------------|
D|-X-X-9--X-X-9--X-X-9-9-9-9--8-8--X-X-7--X-X-7--X-X-7-7-7-7--8-8------------|
A|-X-X-9--X-X-9--X-X-9-9-9-9--8-8--X-X-7--X-X-7--X-X-7-7-7-7--8-8------------|
E|-X-X-7--X-X-7--X-X-7-7-7-7--6-6--X-X-5--X-X-5--X-X-5-5-5-5--6-6------------|

CHORUS: Play first part 3 times, then the second part once
e|---------------------------------------------------------------------------|
B|---------------------------------------------------------------------------|
G|---------------------------------------------------------------------------|
D|-2-2--4-4-4-4--7-7--2-2-2-2--7-7--9-9-9-9--7-7--9-9-9-9--------------------|
A|-2-2--4-4-4-4--7-7--2-2-2-2--7-7--9-9-9-9--7-7--9-9-9-9--------------------|
E|-0-0--2-2-2-2--5-5--0-0-0-0--5-5--7-7-7-7--5-5--7-7-7-7--------------------|

e|---------------------------------------------------------------------------|
B|---------------------------------------------------------------------------|
G|---------------------------------------------------------------------------|
D|-7-7--9-9-9-9--7-7--9-9-9-9--7-7--9-9-9-9--7-7--9-9-9-9--------------------|
A|-7-7--9-9-9-9--7-7--9-9-9-9--7-7--9-9-9-9--7-7--9-9-9-9--------------------|
E|-5-5--7-7-7-7--5-5--7-7-7-7--5-5--7-7-7-7--5-5--7-7-7-7--------------------|

END:
e|---------------------------------------------------------------------------|
B|---------------------------------------------------------------------------|
G|---------------------------------------------------------------------------|
D|-7--7-7/8--8-8/9--9-9/10--10-10/11--11-11/12--12-12/13--13-13/14--14-14-9~-|
A|-7--7-7/8--8-8/9--9-9/10--10-10/11--11-11/12--12-12/13--13-13/14--14-14-9~-|
E|-5--5-5/6--6-6/7--7-7/-8---8--8/-9---9--9/10--10-10/11--11-11/12--12-12-7~-|

------------------------------------------------------------------------------
	 		  	4.) MINORITY
------------------------------------------------------------------------------
INTRO:
e|---------------------------------------------------------------------------|
B|---------------------------------------------------------------------------|
G|---------------------------------------------------------------------------|
D|------9--9999\7--7777/9--9999\7--7777/9--9999\7--7777/9--9999\7--7777------|
A|------9--9999\7--7777/9--9999\7--7777/9--9999\7--7777/9--9999\7--7777------|
E|------7--7777\5--5555/7--7777\5--5555/7--7777\5--5555/7--7777\5--5555------|

e|---------------------------------------------------------------------------|
B|---------------------------------------------------------------------------|
G|---------------------------------------------------------------------------|
D|----9--9-9--7-7-7-7--9--9-9--7-7-7-7--9--9-9--7-7-7-7--9--9-9--7-7-7-7-----|
A|----9--9-9--7-7-7-7--9--9-9--7-7-7-7--9--9-9--7-7-7-7--9--9-9--7-7-7-7-----|
E|----7--7-7--5-5-5-5--7--7-7--5-5-5-5--7--7-7--5-5-5-5--7--7-7--5-5-5-5-----|
              . . . .
VERSE:
e|---------------------------------------------------------------------------|
B|---------------------------------------------------------------------------|
G|---------------------------------------------------------------------------|
D|-9-9-9-9--7-7-7-7--9-9-9-9--7-7-7-7--9-9-9-9--7-7-7-7--9-9-9-9--7-7-7-7----|
A|-9-9-9-9--7-7-7-7--9-9-9-9--7-7-7-7--9-9-9-9--7-7-7-7--9-9-9-9--7-7-7-7----|
E|-7-7-7-7--5-5-5-5--7-7-7-7--5-5-5-5--7-7-7-7--5-5-5-5--7-7-7-7--5-5-5-5----
   . . . .  . . . .  . . . .  . . . .  . . . .  . . . .  . . . .  . . . .
CHORUS:
e|---------------------------------------------------------------------------|
B|---------------------------------------------------------------------------|
G|---------------------------------------------------------------------------|
D|-6-6-6-6--6-6-6-6--7-7-7-7--7-7-7-7--6-6-6-6--6-6-6-6--7-7-7-7--7-7-7-7----|
A|-6-6-6-6--6-6-6-6--7-7-7-7--7-7-7-7--6-6-6-6--6-6-6-6--7-7-7-7--7-7-7-7----|
E|-4-4-4-4--4-4-4-4--5-5-5-5--5-5-5-5--4-4-4-4--4-4-4-4--5-5-5-5--5-5-5-5----|

SOLO:
B|-5s6s7b--9b-9b-9b--7b-7b-7b--9b-9b-9b--------------------------------------|

e|---------------------------------------------------------------------------|
B|---------------------------------------------------------------------------|
G|---9-9-9-9--7-7-7-7--9--9-9--7-7-7-7--9--9-9--7-7-7-7--9--9-9--7-7-7-7-----|
D|---9-9-9-9--7-7-7-7--9--9-9--7-7-7-7--9--9-9--7-7-7-7--9--9-9--7-7-7-7-----|
A|---7-7-7-7--5-5-5-5--7--7-7--5-5-5-5--7--7-7--5-5-5-5--7--7-7--5-5-5-5-----|
E|---------------------------------------------------------------------------|

B|-9-9-9-7--7-7-7--9-9-9-7--7-7-7--9-9-9-7--7-7-7--9-9-9-7--7-7-7------------|

B|-9p7h9p7h9p7h9p7h9p7h9p7h9p7h9p7h9p7h9p7h9p7h9p7h9-------------------------|

------------------------------------------------------------------------------
	 	  	5.) MICKEY MOUSE IS DEAD
------------------------------------------------------------------------------
INTRO:
e|---------------------------------------------------------------------------|
B|---------------------------------------------------------------------------|
G|---------------------------------------------------------------------------|
D|-9*--9*--9*--9\8*----------------------------------------------------------|
A|-9*--9*--9*--9\8*----------------------------------------------------------|
E|-7*--7*--7*--7\6*----------------------------------------------------------|

PRE-1ST VERSE: Play twice
e|---------------------------------------------------------------------------|
B|---------------------------------------------------------------------------|
G|-----6---------------------------------------------------------------------|
D|-7-7-6-7--9-9-9-9----------------------------------------------------------|
A|-7-7-4-7--9-9-9-9----------------------------------------------------------|
E|-5-5---5--7-7-7-7----------------------------------------------------------|

VERSE PART 1:
e|---------------------------------------------------------------------------|
B|---------------------------------------------------------------------------|
G|--------------6------------------------------------------------------------|
D|-9-9-9-9--7-7-6-7----------------------------------------------------------|
A|-9-9-9-9--7-7-4-7----------------------------------------------------------|
E|-7-7-7-7--5-5---5----------------------------------------------------------|

VERSE PART 2:
e|---------------------------------------------------------------------------|
B|---------------------------------------------------------------------------|
G|-7-7-7-7/8-8-8-8\7-7-7-7/8-8-8-8\7-7-7-7/8-8-8-8\7-7-7-7/8-8-8-8-----------|
D|-7-7-7-7/8-8-8-8\7-7-7-7/8-8-8-8\7-7-7-7/8-8-8-8\7-7-7-7/8-8-8-8-----------|
A|-5-5-5-5/6-6-6-6\5-5-5-5/6-6-6-6\5-5-5-5/6-6-6-6\5-5-5-5/6-6-6-6-----------|
E|---------------------------------------------------------------------------|

BRIDGE:

e|---------------------------------------------------------------------------|
B|---------------------------------------------------------------------------|
G|---------------------------------------------------------------------------|
D|-9*--9*--9*--9*--9-9-9-9--9-9----------------------------------------------|
A|-9*--9*--9*--9*--9-9-9-9--9-9----------------------------------------------|
E|-7*--7*--7*--7*--7-7-7-7--7-7----------------------------------------------|

------------------------------------------------------------------------------
	 	  		6.) NOTHING I CAN DO
------------------------------------------------------------------------------
INTRO:
e|---------------------------------------------------------------------------|
B|---------------------------------------------------------------------------|
G|---------------------------------------------------------------------------|
D|-------------------------7-7-7-7--7-7-7--6-6-6-6-6-6-6-6--5-5-5-5-5-5-5-5--|
A|-------------------------7-7-7-7--7-7-7--6-6-6-6-6-6-6-6--5-5-5-5-5-5-5-5--|
E|-------------------------5-5-5-5--5-5-5--4-4-4-4-4-4-4-4--3-3-3-3-3-3-3-3--|
                           ! . . !  . . .  . . . . . . . .  . . . . . . . .
e|---------------------------------------------------------------------------|
B|---------------------------------------------------------------------------|
G|---------------------------------------------------------------------------|
D|-7--7-7-7-7-7-7--9-9-9-9-9-9-9-9--8-8-8-8-8-8-8-8--7-7-7-7-7-7-7-7---------|
A|-7--7-7-7-7-7-7--9-9-9-9-9-9-9-9--8-8-8-8-8-8-8-8--7-7-7-7-7-7-7-7---------|
E|-5--5-5-5-5-5-5--7-7-7-7-7-7-7-7--6-6-6-6-6-6-6-6--5-5-5-5-5-5-5-5---------|
      . . . . . .  ! . . ! . . . .  ! . . ! . . . .  ! . . ! . . . .
VERSE:
e|---------------------------------------------------------------------------|
B|---------------------------------------------------------------------------|
G|---------------------------------------------------------------------------|
D|---7-7-7-7--7-7-7-7--9-9-9-9--9-9-9-9--8-8-8-8--8-8-8-8--7-7-7-7--7-7-7-7--|
A|---7-7-7-7--7-7-7-7--9-9-9-9--9-9-9-9--8-8-8-8--8-8-8-8--7-7-7-7--7-7-7-7--|
E|---5-5-5-5--5-5-5-5--7-7-7-7--7-7-7-7--6-6-6-6--6-6-6-6--5-5-5-5--5-5-5-5--|

SOLO #1:
e|---5b--5b--5b---7b--7b--7b---6b--6b--6b---5b--5b--5b-----------------------|

SOLO #2:
e|---10b--10b--10b---12b--12b--12b---11b--11b--11b--11b~~v~~-----------------|

BRIDGE: MUTE THE VERSE

SOLO #3: 1st part played under lyrics
e|-5b-5b-5b-7b-7b-7b-6b-6b-6b-5b-5b-5b/10b-10b-10b-12b-12b-12b-11b-11b-11b-10|

Here it speeds up really fast and I can't quite make it out

END:
e|---------------------------------------------------------------------------|
B|---------------------------------------------------------------------------|
G|---------------------------------------------------------------------------|
D|-7-7-7-7-X-X-X-X--9-9-9-9-X-X-X-X--8-8-8-8-X-X-X-X--7-7-7-7-X-X-X-X--------|
A|-7-7-7-7-X-X-X-X--9-9-9-9-X-X-X-X--8-8-8-8-X-X-X-X--7-7-7-7-X-X-X-X--------|
E|-5-5-5-5-X-X-X-X--7-7-7-7-X-X-X-X--6-6-6-6-X-X-X-X--5-5-5-5-X-X-X-X--------|

e|---------------------------------------------------------------------------|
B|---------------------------------------------------------------------------|
G|---------------------------------------------------------------------------|
D|-7-7-7-7-X-X-X-X--9-9-9-9-X-X-X-X--8-8-8-8-X-X-X-X--7-7-7-7-7~-------------|
A|-7-7-7-7-X-X-X-X--9-9-9-9-X-X-X-X--8-8-8-8-X-X-X-X--7-7-7-7-7~-------------|
E|-5-5-5-5-X-X-X-X--7-7-7-7-X-X-X-X--6-6-6-6-X-X-X-X--5-5-5-5-5~-------------|

------------------------------------------------------------------------------
	 	  		7.) DYING WORLD
------------------------------------------------------------------------------
INTRO:
B|----12p7~v---\\\5~---------------------------------------------------------|

VERSE:
e|---------------------------------------------------------------------------|
B|---------------------------------------------------------------------------|
G|---------------------------------------------------------------------------|
D|-X-X-9-9--X-X-7--X-X-9-9--X-X-7--X-X-9-9--X-X-7---------9-9-9-9-7-7-7-7-9~-|
A|-X-X-9-9--X-X-7--X-X-9-9--X-X-7--X-X-9-9--X-X-7-(etc.)--9-9-9-9-7-7-7-7-9~-|
E|-X-X-7-7--X-X-5--X-X-7-7--X-X-5--X-X-7-7--X-X-5---------7-7-7-7-5-5-5-5-7~-|

CHORUS:
e|---------------------------------------------------------------------------|
B|---------------------------------------------------------------------------|
G|---------------------------------------------------------------------------|
D|-9-9-9-9-7-7-7-7--9-9-9-9-7-7-7-7--9-9-9-9-8-8-8-8--10-10-10-10-8-8-8-8----|
A|-9-9-9-9-7-7-7-7--9-9-9-9-7-7-7-7--9-9-9-9-8-8-8-8--10-10-10-10-8-8-8-8----|
E|-7-7-7-7-5-5-5-5--7-7-7-7-5-5-5-5--7-7-7-7-6-6-6-6---8--8--8--8-6-6-6-6----|

e|---------------------------------------------------------------------------|
B|---------------------------------------------------------------------------|
G|---------------------------------------------------------------------------|
D|-10-10-10-10-8-8-8-8--9-9-9-9-7-7-7-7--9-9-9-9-7-7-7-7--9-9-9-9-7-7-7-7----|
A|-10-10-10-10-8-8-8-8--9-9-9-9-7-7-7-7--9-9-9-9-7-7-7-7--9-9-9-9-7-7-7-7----|
E|--8--8--8--8-6-6-6-6--7-7-7-7-5-5-5-5--7-7-7-7-5-5-5-5--7-7-7-7-5-5-5-5----|

e|---------------------------------------------------------------------------|
B|---------------------------------------------------------------------------|
G|---------------------------------------------------------------------------|
D|-9-9-9-9-8-8-8-8--10-10-10-10-8-8-8-8--------------------------------------|
A|-9-9-9-9-8-8-8-8--10-10-10-10-8-8-8-8--------------------------------------|
E|-7-7-7-7-6-6-6-6---8--8--8--8-6-6-6-6--------------------------------------|

------------------------------------------------------------------------------
	 	  		8.) SUBVERT CITY
------------------------------------------------------------------------------
MAIN RIFF:
e|---------------------------------------------------------------------------|
B|---------------------------------------------------------------------------|
G|---------------------------------------------------------------------------|
D|--7-7--7--7-7--7/10-10-10-10\9-9-9-9---------------------------------------|
A|--7-7--7--7-7--7/10-10-10-10\9-9-9-9---------------------------------------|
E|--5-5--5--5-5--5/-8--8--8--8\7-7-7-7---------------------------------------|
    . .     . .

OTHER PART:
e|---------------------------------------------------------------------------|
B|---------------------------------------------------------------------------|
G|-14-14-14-14-14-14-14-14--13-13-13-13-13-13-13-13--12-12-12-12-12-12-12-12-|
D|-14-14-14-14-14-14-14-14--13-13-13-13-13-13-13-13--12-12-12-12-12-12-12-12-|
A|-12-12-12-12-12-12-12-12--11-11-11-11-11-11-11-11--10-10-10-10-10-10-10-10-|
E|---------------------------------------------------------------------------|

e|---------------------------------------------------------------------------|
B|---------------------------------------------------------------------------|
G|-11-11-11-11-11-11-11-11---------------------------------------------------|
D|-11-11-11-11-11-11-11-11---------------------------------------------------|
A|--9--9--9--9--9--9--9--9---------------------------------------------------|
E|---------------------------------------------------------------------------|

SOLO:
D|-14p12----14p12----12-----13p11----13p11----11-----12p10----12p10----10----|
A|-------12-------12----12--------11-------11----11--------10-------10----10-|

D|-11p9---11p9---9-----------------------------------------------------------|
A|------9------9---9---------------------------------------------------------|

GUITAR SOLO 1st PART:
B|-15b-15-15-15rb--14pb-14-14rb--13pb-13-13rb-12s15---repeat as needed-------|

GUITAR SOLO 2nd PART:
B|-15-15-15-15-ssss-5-5-5-5-ssss-15-15-15-15-ssss-5-5-5-5-5-(feedback)-------|

------------------------------------------------------------------------------
	 	  		 9.) BIG BROTHER
------------------------------------------------------------------------------
INTRO/VERSE:
e|---------------------------------------------------------------------------|
B|---------------------------------------------------------------------------|
G|-9/10\9/10\9---------------------------------------------------------------|
D|-9/10\9/10\9--9-9-9-9--11-11-11-11-----------------------------------------|
A|-7/-8\7/-8\7--9-9-9-9--11-11-11-11-----------------------------------------|
E|--------------7-7-7-7---9--9--9--9-----------------------------------------|
                . . . .   .  .  .  .
CHORUS:
e|---------------------------------------------------------------------------|
B|---------------------------------------------------------------------------|
G|------------------9\7/9\7/9------------------------------------------------|
D|-9--9-9--7-7-7-7--9\7/9\7/9------------------------------------------------|
A|-9--9-9--7-7-7-7--7\5/7\5/7------------------------------------------------|
E|-7--7-7--5-5-5-5-----------------------------------------------------------|

BRIDGE:
e|-------------------------13p11p10h13p11p10-10------------------------------|
B|---------------------------------------------------------------------------|
G|---------------------------------------------------------------------------|
D|-9-9-9-9--11-11-11-11----------------------------9-9-9-9--11-11-11-11------|
A|-9-9-9-9--11-11-11-11----------------------------9-9-9-9--11-11-11-11------|
E|-7-7-7-7---9--9--9--9----------------------------7-7-7-7---9--9--9--9------|

e|---------------------------------------------------------------------------|
B|---------------------------------------------------------------------------|
G|---------------------------------------------------------------------------|
D|-9-9-9-9--11-11-11-11------------------------------------------------------|
A|-9-9-9-9--11-11-11-11------------------------------------------------------|
E|-7-7-7-7---9--9--9--9------------------------------------------------------|

------------------------------------------------------------------------------
	 	  		   10.) NEW AGE
------------------------------------------------------------------------------
INTRO:
e|---------------------------------------------------------------------------|
B|---------------------------------------------------------------------------|
G|-----------------------------------------------11-11-11---9--9-9-9-9-9-9-9-|
D|-9999*---9999*---9999*---9-9-9-9-9-9---9--9-9--11-11-11---9--9-9-9-9-9-9-9-|
A|-9999*---9999*---9999*---9-9-9-9-9-9---9--9-9---9--9--9---7--7-7-7-7-7-7-7-|
E|-7777*---7777*---7777*---7-7-7-7-7-7---7--7-7------------------------------|

VERSE:
e|---------------------------------------------------------------------------|
B|---------------------------------------------------------------------------|
G|----------11-11-11---9--9-9-9-9-9-9-9--------------------------------------|
D|-9-9-9-9--11-11-11---9--9-9-9-9-9-9-9--------------------------------------|
A|-9-9-9-9---9--9--9---7--7-7-7-7-7-7-7--------------------------------------|
E|-7-7-7-7-------------------------------------------------------------------|
   . . . .   .  .  .   .  . . . . . . .
CHORUS:
e|---------------------------------------------------------------------------|
B|---------------------------------------------------------------------------|
G|---------------------------------------------------------------------------|
D|-9*-9*-9*-9*-9*-9*-7-7-9-9-9-9-9-9-9-9-9-9-9-9--7-7-9-9-9-9-9-9-9-9-9-9-9-9|
A|-9*-9*-9*-9*-9*-9*-7-7-9-9-9-9-9-9-9-9-9-9-9-9--7-7-9-9-9-9-9-9-9-9-9-9-9-9|
E|-7*-7*-7*-7*-7*-7*-5-5-7-7-7-7-7-7-7-7-7-7-7-7--5-5-7-7-7-7-7-7-7-7-7-7-7-7|

e|---------------------------------------------------------------------------|
B|---------------------------------------------------------------------------|
G|---------------------------------------------------------------------------|
D|-5-5-7-7-7-7-7-7-7-7-7-7-7-7--5-5-7-7-7-7-7-7-7-7--9*-9*-------------------|
A|-5-5-7-7-7-7-7-7-7-7-7-7-7-7--5-5-7-7-7-7-7-7-7-7--9*-9*-------------------|
E|-3-3-5-5-5-5-5-5-5-5-5-5-5-5--3-3-5-5-5-5-5-5-5-5--7*-7*-------------------|

------------------------------------------------------------------------------
	 	  	     11.) I DON'T WANNA DIE
------------------------------------------------------------------------------
INTRO/VERSE:
e|---------------------------------------------------------------------------|
B|---------------------------------------------------------------------------|
G|---------------------------------------------------------------------------|
D|-9-9-9-9--9-9-9-9--8-8-8-8--7-7-7-7------(9~------------)------------------|
A|-9-9-9-9--9-9-9-9--8-8-8-8--7-7-7-7------(9~-intro only-)------------------|
E|-7-7-7-7--7-7-7-7--6-6-6-6--5-5-5-5------(7~------------)------------------|

CHORUS:
e|---------------------------------------------------------------------------|
B|---------------------------------------------------------------------------|
G|---------------------------------------------------------------------------|
D|-8-8-8-8--8-8-8-8--8-8-8-8--9-9-10-10--------------------------------------|
A|-8-8-8-8--8-8-8-8--8-8-8-8--9-9-10-10--------------------------------------|
E|-6-6-6-6--6-6-6-6--6-6-6-6--7-7--8--8--------------------------------------|

SOLO: My high e string just broke as I was tabbing this so, uh...

END:
e|---------------------------------------------------------------------------|
B|---------------------------------------------------------------------------|
G|---------------------------------------------------------------------------|
D|-9-------8~\7~-------------------------------------------------------------|
A|-9-------8~\7~-------------------------------------------------------------|
E|-7-------6~\5~-------------------------------------------------------------|

------------------------------------------------------------------------------
	 	  	           12.) NO
------------------------------------------------------------------------------
ONLY RIFF:
e|---------------------------------------------------------------------------|
B|---------------------------------------------------------------------------|
G|-7-7-7-7--9-9-9-9--10-10-10--9--9-9-9--7-7-7-7--5-5-5-5--4-4-4--5--5-5-5---|
D|-7-7-7-7--9-9-9-9--10-10-10--9--9-9-9--7-7-7-7--5-5-5-5--4-4-4--5--5-5-5---|
A|-5-5-5-5--7-7-7-7---8--8--8--7--7-7-7--5-5-5-5--3-3-3-3--2-2-2--3--3-3-3---|
E|---------------------------------------------------------------------------|

------------------------------------------------------------------------------
	 	  	     13.) ZYKLON-B-MOVIE
------------------------------------------------------------------------------
INTRO:
e|---------------------------------------------------------------------------|
B|---------------------------------------------------------------------------|
G|-12-10-9--X-X-X-X-X-X-X-X-X-X-X---12-10-9--X-X-X-X-X-X-X-X-X-X-X-----------|
D|-12-10-9--X-X-X-X-X-X-X-X-X-X-X---12-10-9--X-X-X-X-X-X-X-X-X-X-X-----------|
A|-10--8-7--X-X-X-X-X-X-X-X-X-X-X---10--8-7--X-X-X-X-X-X-X-X-X-X-X-----------|
E|---------------------------------------------------------------------------|

e|---------------------------------------------------------------------------|
B|---------------------------------------------------------------------------|
G|-9\7--X-X-X-X-X-X-X-X---9-X-X-9-X-9--7p5h7p5h7p5h7p5h7p5h7p5h7p5h7p5h7p5h7~|
D|-9\7--X-X-X-X-X-X-X-X---9-X-X-9-X-9----------------------------------------|
A|-7\5--X-X-X-X-X-X-X-X---7-X-X-7-X-7----------------------------------------|
E|---------------------------------------------------------------------------|

e|---------------------------------------------------------------------------|
B|---------------------------------------------------------------------------|
G|-7--X-X-X-X-X-X--9-X-X-X-X-X-X-X-X-X-X-X-X--12\10\9~---12\10\9~--9-9-9-9-9-|
D|-7--X-X-X-X-X-X--9-X-X-X-X-X-X-X-X-X-X-X-X--12\10\9~---12\10\9~--9-9-9-9-9-|
A|-5--X-X-X-X-X-X--7-X-X-X-X-X-X-X-X-X-X-X-X--10\-8\7~---10\-8\7~--7-7-7-7-7-|
E|---------------------------------------------------------------------------|

VERSE:
e|---------------------------------------------------------------------------|
B|---------------------------------------------------------------------------|
G|-12-10-9--X-X-X-X-X-X-X-X-X-X-X---12-10-9--X-X-X-X-X-X-X-X-X-X-X-----------|
D|-12-10-9--X-X-X-X-X-X-X-X-X-X-X---12-10-9--X-X-X-X-X-X-X-X-X-X-X-----------|
A|-10--8-7--X-X-X-X-X-X-X-X-X-X-X---10--8-7--X-X-X-X-X-X-X-X-X-X-X-----------|
E|---------------------------------------------------------------------------|

CHORUS:
e|---------------------------------------------------------------------------|
B|---------------------------------------------------------------------------|
G|-7--7-7--12--12-12--12--12-12-12p10h12p10h12p10h12p10h12p10h12p10h12p10h12-|
D|-7--7-7--12--12-12--12--12-12----------------------------------------------|
A|-5--5-5--10--10-10--10--10-10----------------------------------------------|
E|---------------------------------------------------------------------------|

BRIDGE:
e|---------------------------------------------------------------------------|
B|---------------------------------------------------------------------------|
G|-12\10\9--9-9-9-9--9-9-9-9--9-9--------------------------------------------|
D|-12\10\9--9-9-9-9--9-9-9-9--9-9--------------------------------------------|
A|-10\-8\7--7-7-7-7--7-7-7-7--7-7--------------------------------------------|
E|---------------------------------------------------------------------------|

END:
e|---------------------------------------------------------------------------|
B|---------------------------------------------------------------------------|
G|-9---9---9---9---9---9---9-------------------------------------------------|
D|-9---9---9---9---9---9---9-------------------------------------------------|
A|-7---7---7---7---7---7---7-------------------------------------------------|
E|---------------------------------------------------------------------------|

------------------------------------------------------------------------------
	 	  	14.) 'TIL THE PIGS COME ROUND
------------------------------------------------------------------------------
VERSE:
e|---------------------------------------------------------------------------|
B|---------------------------------------------------------------------------|
G|----------------------------------------------------11--11-11-11-11-11-11--|
D|-9--9-9-9-9-9-9---9--9-9-9-9-9-9---9--9-9-9-9-9-9---11--11-11-11-11-11-11--|
A|-9--9-9-9-9-9-9---9--9-9-9-9-9-9---9--9-9-9-9-9-9----9---9--9--9--9--9--9--|
E|-7--7-7-7-7-7-7---7--7-7-7-7-7-7---7--7-7-7-7-7-7--------------------------|

CHORUS:
e|------------------------------------------------------don't-play-----------|
B|-----------------------------------------------------for-the-last----------|
G|-----------------------------------9--9-9-9-9-9-9----time-through----------|
D|--9*--9*--9*--9*--7--7-7-7-7-7-7---9--9-9-9-9-9-9---9-(9-9-9-9)------------|
A|--9*--9*--9*--9*--7--7-7-7-7-7-7---7--7-7-7-7-7-7---9-(9-9-9-9)------------|
E|--7*--7*--7*--7*--5--5-5-5-5-5-5--------------------7-(7-7-7-7)------------|

"THE FUN BIT":
e|---------------------------14-12-------------------------------------------|
B|----------------------(14)-------15-14------------------------14~---(14)---|
G|-10-10-10-12-14-15---------------------16-14-13------13-14-16--------------|
D|-10-10-10-12-14-15--------------------------------16-----------------------|
A|--8--8--8-10-12-13---------------------------------------------------------|
E|---------------------------------------------------------------------------|

e|--14-12--------------------------------------------------------------------|
B|--------15-14------------------------14~-----------------------------------|
G|--------------16-14-13------13-14-16---------------------------------------|
D|-------------------------16-------------------12-12-12-12-12-12-12-12------|
A|----------------------------------------------12-12-12-12-12-12-12-12------|
E|----------------------------------------------10-10-10-10-10-10-10-10------|

e|---------------------------------------------------------------------------|
B|---------------------------------------------------------------------------|
G|-------------------------12-12-12-12-12-12-12-12---------------------------|
D|-10-10-10-10-10-10-10-10-12-12-12-12-12-12-12-12-8/9/10/11/12-8/9/10/11/12-|
A|-10-10-10-10-10-10-10-10-10-10-10-10-10-10-10-10-8/9/10/11/12-8/9/10/11/12-|
E|--8--8--8--8--8--8--8--8-------------------------6/7/-8/-9/10-6/7/-8/-9/10-|

e|---------------------------------------------------------------------------|
B|---------------------------------------------------------------------------|
G|---------------------------------------------------------------------------|
D|-8/9/10/11/12--12-12-12-12--12-12-12-12--12-12-12-12---12*--12*--12*--12---|
A|-8/9/10/11/12--12-12-12-12--12-12-12-12--12-12-12-12---12*--12*--12*--12---|
E|-6/7/-8/-9/10--10-10-10-10--10-10-10-10--10-10-10-10---10*--10*--10*--10---|

------------------------------------------------------------------------------
	 	  	     15.) NO MORE GIGS
------------------------------------------------------------------------------
INTRO/VERSE:
e|---------------------------------------------------------------------------|
B|---------------------------------------------------------------------------|
G|---------------------------------------------------------------------------|
D|-8--8--8--8\6/8--8--8--8\6/7--7-7-7--7-7-7--7-7--7-7-7---------------------|
A|-8--8--8--8\6/8--8--8--8\6/7--7-7-7--7-7-7--7-7--7-7-7--5/6/7--------------|
E|-6--6--6--6\4/6--6--6--6\4/5--5-5-5--5-5-5--5-5--5-5-5---------------------|

NEXT RIFF:
e|---------------------------------------------------------------------------|
B|---------------------------------------------------------------------------|
G|---------------------------------------------------------------------------|
D|-8-8-8-8--8-8-8-8--8-8-8-8--8-8-8-8--7-7-7-7--7-7-7-7--7-7-7-7--7-7-7-7----|
A|-8-8-8-8--8-8-8-8--8-8-8-8--8-8-8-8--7-7-7-7--7-7-7-7--7-7-7-7--7-7-7-7----|
E|-6-6-6-6--6-6-6-6--6-6-6-6--6-6-6-6--5-5-5-5--5-5-5-5--5-5-5-5--5-5-5-5----|

SOLO:
B|-5h6h8p6p5-5-5p3-3-3-3-3h5-5b(6)rb5p3h5/5h6h8p6p5-5p3-3-3h5-5b(6)rb5p3h5/--|

B|-5s11s15--15h17p15--15h17h20-20\\\\\\\\\\\\\\\\1p0-0-0h1/////////////////20|

------------------------------------------------------------------------------
	 	  	     16.) BLACK AND WHITE
------------------------------------------------------------------------------
INTRO:
e|---------------------------------------------------------------------------|
B|---------------------------------------------------------------------------|
G|---------------------------------------------------------------------------|
D|-7-7-5-5--7-7-4-4--7-7-5-5--8-8-8-8--7-7-5-5--7-7-4-4--7-7-5-5--8-8-8-8----|
A|-7-7-5-5--7-7-4-4--7-7-5-5--8-8-8-8--7-7-5-5--7-7-4-4--7-7-5-5--8-8-8-8----|
E|-5-5-3-3--5-5-2-2--5-5-3-3--6-6-6-6--5-5-3-3--5-5-2-2--5-5-3-3--6-6-6-6----|

PRE-VERSE:
e|---------------------------------------------------------------------------|
B|---------------------------------------------------------------------------|
D|-8--7--5--7--8--7--5--8--7~------------------------------------------------|
A|-8--7--5--7--8--7--5--8--7~------------------------------------------------|
E|-6--5--3--5--6--5--3--6--5~------------------------------------------------|

VERSE:
e|---------------------------------------------------------------------------|
B|---------------------------------------------------------------------------|
G|---------------------------------------------------------------------------|
D|-10----9----10----9----10----9----10----9----10----9----10----9----10----9-|
A|-10----9----10----9----10----9----10----9----10----9----10----9----10----9-|
E|--8----7-----8----7-----8----7-----8----7-----8----7-----8----7-----8----7-|

CHORUS: Here's the riffs, you figure out where they go.
e|---------------------------------------------------------------------------|
B|---------------------------------------------------------------------------|
G|-7-7-7-4-4-4-5-5--4-4/5-5/7-7/12-12-12\11-11-11\9-9-9\7-7-7\5-5-5-5--------|
D|-7-7-7-4-4-4-5-5--------------12-12-12\11-11-11\9-9-9\7-7-7\5-5-5-5--------|
A|-5-5-5-2-2-2-3-3--------------10-10-10\-9--9--9\7-7-7\5-5-5\3-3-3-3--------|
E|---------------------------------------------------------------------------|
   . . . . . . . .
e|---------------------------------------------------------------------------|
B|---------------------------------------------------------------------------|
G|-7-7-7/9-9-9/11-11-11/12-12-12\11-11-11/12-12-12\11-11-11\9-9-9\7-7-7\5-5-5|
D|-7-7-7/9-9-9/11-11-11/12-12-12\11-11-11/12-12-12\11-11-11\9-9-9\7-7-7\5-5-5|
A|-5-5-5/7-7-7/-9--9--9/10-10-10\-9--9--9/10-10-10\-9--9--9\7-7-7\5-5-5\3-3-3|
E|---------------------------------------------------------------------------|

e|---------------------------------------------------------------------------|
B|---------------------------------------------------------------------------|
G|-5-5-5-5--4-4-4-4--5-5-5-5--7-7-7-7--5-5-5-5--5-5-5-5---12\11\9\7\5\4------|
D|-5-5-5-5--4-4-4-4--5-5-5-5--7-7-7-7--5-5-5-5--5-5-5-5----------------------|
A|-3-3-3-3--2-2-2-2--3-3-3-3--5-5-5-5--3-3-3-3--3-3-3-3----------------------|
E|---------------------------------------------------------------------------|

e|---------------------------------------------------------------------------|
B|---------------------------------------------------------------------------|
G|-5-5-5-5--4-4-4-4--5-5-5-5--7-7-7-7--5-5-5-5--5-5-5-5---12-11-9-7-5-4------|
D|-5-5-5-5--4-4-4-4--5-5-5-5--7-7-7-7--5-5-5-5--5-5-5-5---12-11-9-7-5-4------|
A|-3-3-3-3--2-2-2-2--3-3-3-3--5-5-5-5--3-3-3-3--3-3-3-3---10--9-7-5-3-2------|
E|---------------------------------------------------------------------------|

NEXT VERSE: Same as other, up 1 string

OUTRO:
e|---------------------------------------------------------------------------|
B|---------------------------------------------------------------------------|
G|10-10-10-10-10-10-10-10--9-9-9-9-9-9-9-9--7-7-7-7-7-7-7-7--6-6-6-6-6-6-6-6-|
D|10-10-10-10-10-10-10-10--9-9-9-9-9-9-9-9--7-7-7-7-7-7-7-7--6-6-6-6-6-6-6-6-|
A|-8--8--8--8--8--8--8--8--7-7-7-7-7-7-7-7--5-5-5-5-5-5-5-5--4-4-4-4-4-4-4-4-|
E|---------------------------------------------------------------------------|

------------------------------------------------------------------------------
                                  THE END
------------------------------------------------------------------------------

     
Добавлено: 08.11.2013
Вам также может быть интересно:
Другие материалы по этой песне:
  • Аккорды и текст

Страница создана 08.11.2013
http://primanota.ru/subhumans/the-day-the-country-died-album-chords.htm
Привет, Гость.
Предлагаем пройти революционный курс по гитаре.
Подарок от PrimaNota.Ru, забирай!