PrimaNota.ru - самый крупный в мире бесплатный архив песенных текстов, аккордов, табулатур и нот


Subhumans - Subvert City - текст песни, таба, видео

Регистрация Запомнить меня
Войти через:  Facebook Google Twitter Vk Yandex Mail.ru

Subhumans - Subvert City - текст песни, таба, видео

Печатать
Просмотров: 76
Subhumans: Subvert city

intro : play clean and palm mute 
e|-------------------------------------------| 
B|------------2------------------------------| 
G|------2-----2--------5--------4------------|9x 
D|----2-------2------5--------4--------------| 
A|--0-----0-0------3-----3--2------2---------| 
E|-------------------------------------------| 
Now whit distortion for the rest of the song
e|-------------------------------------------| 
B|---2b-^^--^^-------------------------------| 
G|-------------------------5-------4---------| 1x
D|-------------------------5-------4---------| 
A|-------------------------3-------2---------| 
E|-------------------------------------------|

verse:1
e|-------------------------------------------| 
B|--2-2-x-2-2-x------------------------------| 
G|--2-2-x-2-2-x---5-5-5-5-\-4-4-4-4----------| 7x
D|--2-2-x-2-2-x---5-5-5-5-\-4-4-4-4----------| 
A|--0-0-x-0-2-x---3-3-3-3-\-2-2-2-2----------| 
E|-------------------------------------------|


verse:2 fast picking 
e|--------------------------------------------| 
B|--------------------------------------------| 
G|---14---X8---13---X8---12---X8---11---X8----| 5x
D|---14--------13--------12--------11---------| 
A|---12--------11--------10---------9---------| 
E|--------------------------------------------| 

verse 3
e|--5-5-x-5-------------------| 
B|--6-6-x-6-------------------| 
G|--7-7-x-7-------------------| 8x
D|--7-7-x-7-----10----9-------| 
A|--5-5-x-5------8----7-------| 
E|----------------------------|
 
Riff
e|------------------------------------------------------------------------| 
B|------------------------------------------------------------------------| 
G|14p12----14p12----12-----1311----13p11----11-----12p10----12p10----10---| 
D|-----12-------12----12--------11-------11----11--------10-------10----10| 
A|------------------------------------------------------------------------| 
E|------------------------------------------------------------------------| 

e|---------------------------------------------------------------|
B|---------------------------------------------------------------| 
G|-11p9---11p9---9-----------------------------------------------|2x
D|------9------9---9------------12------11------10------9--------| 
A|------------------------------10-------9-------8------7--------| 
E|---------------------------------------------------------------|

Solo:                                       
e|---------------------------------------------------------| 
B|-15b-15-15-15-15-14b-14-14-14-14--13b-13-13-13-12-12b----|
G|---------------------------------------------------------|2x 
D|---------------------------------------------------------| 
A|---------------------------------------------------------| 
E|---------------------------------------------------------| 

e|-----------^----------^--------------^----------5b---| 
B|-15-15-15-15b-/-5-5-5-5b-\-15-15-15-15b-/-5-5-5-5b---| 
G|-----------------------------------------------------| 1x
D|-----------------------------------------------------| 
A|-----------------------------------------------------| 
E|-----------------------------------------------------| 

After this solo play verse:2 fast picking 
e|--------------------------------------------| 
B|--------------------------------------------| 
G|---14---X8---13---X8---12---X8---11---X8----| 5x
D|---14--------13--------12--------11---------| 
A|---12--------11--------10---------9---------| 
E|--------------------------------------------| 

 and verse:1
e|-------------------------------------------| 
B|--2-2-x-2-2-x------------------------------| 
G|--2-2-x-2-2-x---5-5-5-5-\-4-4-4-4----------| 
D|--2-2-x-2-2-x---5-5-5-5-\-4-4-4-4----------| 16x
A|--0-0-x-0-2-x---3-3-3-3-\-2-2-2-2----------| 
E|-------------------------------------------|




Добавлено: 01.06.2013
Другие материалы по этой песне:
  • Аккорды и текст

Страница создана 02.04.2012
http://primanota.ru/subhumans/subvert-city-chords.htm
Привет, Гость.
Предлагаем пройти революционный курс по гитаре.
Подарок от PrimaNota.Ru, забирай!