PrimaNota.ru - самый крупный в мире бесплатный архив песенных текстов, аккордов, табулатур и нот


Subhumans - Society - текст песни, таба, видео

Регистрация Запомнить меня
Войти через:  Facebook Google Twitter Vk Yandex Mail.ru

Subhumans - Society - текст песни, таба, видео

Печатать
Просмотров: 93
Уроки эстрадного вокала в Санкт-Петербурге
Авторы музыки: Subhumans
Авторы текста: Dick Lucas, Julian Newby
Introduction
E|---------------------------------------------------------------------------|
B|---------------------------------------------------------------------------|
G|-4~-------2~---------------------------------------------------------------|
D|-4~-------2~--------2~-----------------------------------------------------|
A|-2~-------0~--------2~-----------------------------------------------------|
E|--------------------0~-----------------------------------------------------|

Verse
E|---------------------------------------------------------------------------|
B|---------------------------------------------------------------------------|
G|-4-4-4-4--2-2-2-2----------------------------------------------------------|
D|-4-4-4-4--2-2-2-2--2-2-2-2--2-2-2-2----------------------------------------|
A|-2-2-2-2--0-0-0-0--2-2-2-2--2-2-2-2----------------------------------------|
E|-------------------0-0-0-0--0-0-0-0----------------------------------------|

Alternative verse
E|---------------------------------------------------------------------------|
B|---------------------------------------------------------------------------|
G|-4-4-4-4--2-2-2-2--9-\-7-\-6-/-7-\-6-\-4-----------------------------------|
D|-4-4-4-4--2-2-2-2--9-\-7-\-6-/-7-\-6-\-4-----------------------------------|
A|-2-2-2-2--0-0-0-0--7-\-5-\-4-/-5-\-4-\-2-----------------------------------|
E|---------------------------------------------------------------------------|

Alternative Verse #2:
E|---------------------------------------------------------------------------|
B|---------------------------------------------------------------------------|
G|-4-4-4-4--2-2-2-2--9-9-9-9--9-9-9-9----------------------------------------|
D|-4-4-4-4--2-2-2-2--9-9-9-9--9-9-9-9----------------------------------------|
A|-2-2-2-2--0-0-0-0--7-7-7-7--7-7-7-7----------------------------------------|
E|---------------------------------------------------------------------------|

Chorus:
E|-----------------------------------------------------------------------------|
B|-----------------------------------------------------------------------------|
G|-----------------------------------------------------------------------------|
D|-2-2-2-2--2-2-2-2--2-2-2-2--2-2-2-2--2~--------------------------------------|
A|-2-2-2-2--2-2-2-2--2-2-2-2--2-2-2-2--2~--------------------------------------|
E|-0-0-0-0--0-0-0-0--0-0-0-0--0-0-0-0--0~--------------------------------------|


I'll leave it up to you to tell when you're meant to palm mute or fret hand mute. It's a 
simple song that's fun to play around with.|
Добавлено: 24.07.2013
Другие материалы по этой песне:
  • Аккорды и текст

Страница создана 11.03.2012
http://primanota.ru/subhumans/society-chords.htm
Привет, Гость.
Предлагаем пройти революционный курс по гитаре.
Подарок от PrimaNota.Ru, забирай!