PrimaNota.ru - самый крупный в мире бесплатный архив песенных текстов, аккордов, табулатур и нот


Subhumans - Big Picture - аккорды и текст, таба, видео

Регистрация Запомнить меня
Войти через:  Facebook Google Twitter Vk Yandex Mail.ru

Subhumans - Big Picture - аккорды и текст, таба, видео

Печатать
Просмотров: 119
Уроки эстрадного вокала в Санкт-Петербурге
Big Picture
Subhumans
		   t. See http://www..net/faq/ for more information.                     #
#-----------------------------------------------------------------------------#


"Big Picture", by the SoCal punk legends The Subhumans.

tabbed by tyler@creators.org
I'm 99% sure this is correct, with the exception of the guitar solo, witch
I didn't bother with; it's only 2 bars long and very garbled.
I couldn't make out the lyrics either.

NOTES:
~~~~~~
I have the rough outline of the rhythm notated by the spacing of the chords.
You'll have to figure out the subtleties for yourself.  A hyphen is more or
less an eighth note.  Strum as necessary.

I think he's playing 2-note power chords in this song.  You can add the octave
if you'd like; it doesn't really matter.

For the bassline, just play the root of the guitar chords, same rhythm (hey,
it's just punk rock :)


Intro:
---------------------------------
---------------------------------
---------------------------------
-6-8-4-6-6-4-6--6--6--8----------
-4-6-2-4-4-2-4--4--4--6-6--------
------------------------4--------

Verse A:
-----------------------------------------------------------------------------
-----------------------------------------------------------------------------
-----------------------------------------------------------------------------
--------------------8-------4--------6-----------------8-------4--------6----
-4-6-------4-6------6-------2--------4--------6--------6-------2--------4----
-2-4-------2-4--------------------------------4------------------------------
*Note: all the G# chords are downstoked and palm-muted.  The others aren't.

Chorus:
--------------------------------------
--------------------------------------
--------------------------------------
-5-6----5---8------5-6----5----8------
-3-4-6--3---6------3-4-6--3----6------
-----4-----------------4--------------

Play Verse A
Play Chorus.

Bridge:
---------------------------------------------------------------------
---------------------------------------------------------------------
---------------------------------------------------------------------
---------3--------5-------8-------3-------6--------------------------
-6-------1--------3-------6-------1-------4--------3--------3--------
-4-------------------------------------------------1--------1--------
*Note: the guitar solo is played over the F

Verse B:
--------------------------------------------------------------------
--------------------------------------------------------------------
--------------------------------------------------------------------
--------8-------4--------6-----------------8-------4--------6-------
-6------6-------2--------4--------6--------6-------2--------4-------
-4--------------------------------4---------------------------------

Repeat Chorus

Chorus/Outro:
-----------------------------------------
-----------------------------------------
-----------------------------------------
-5-6----5---8---5-6----5----8-------5-6--
-3-4-6--3---6---3-4-6--3----6-------3-4-6
-----4--------------4-------------------4
                                         ^- IMMEDIATE cutoff.     
Добавлено: 02.09.2013
Другие материалы по этой песне:
  • Аккорды и текст

Страница создана 21.03.2012
http://primanota.ru/subhumans/big-picture-chords.htm
Привет, Гость.
Предлагаем пройти революционный курс по гитаре.
Подарок от PrimaNota.Ru, забирай!