PrimaNota.ru - самый крупный в мире бесплатный архив песенных текстов, аккордов, табулатур и нот


Subcircle - Nine Lives - аккорды и текст, видео

Регистрация Запомнить меня
Войти через:  Facebook Google Twitter Vk Yandex Mail.ru

Subcircle - Nine Lives - аккорды и текст, видео

Печатать
Просмотров: 59
Nine Lives
Subcircle
Title: Nine Lives
Artist: Subcircle
Tablature by: Pepito Go
Guitarist: Pepito Go

*This file is my own work
Well you guys, this is the first single of Subcircle.  It is a great song=
 and I think you guys should learn how to play it.  It is done in standar=
d tuning [e.a.d.g.b.e]
Intro w/ Distortion: (Drums will play for awhile)

E|----------------------------------------------------|
B|----------------------------------------------------|
G|----------------------------------------------------|
D|-5-5-5-5-5-5-5-5-5-5-5-5-7-7-7-7-7-7-7-7-7-7-7-7-7-2|
A|-5-5-5-5-5-5-5-5-5-5-5-5-7-7-7-7-7-7-7-7-7-7-7-7-7-2|
E|-3-3-3-3-3-3-3-3-3-3-3-3-5-5-5-5-5-5-5-5-5-5-5-5-5-0|

Verse 1 w/ Clean Channel
E|------------------------------------------|
B|------------------------------------------|
G|-------------------------------0-0-----0-0|
D|-5-5-5-5-5-5-5-5-5-5-5-5-5-2-2-2-2-2-2-2-2|
A|-5-5-5-5-5-5-5-5-5-5-5-5-5-2-2-2-2-2-2-2-2|
E|-3-3-3-3-3-3-3-3-3-3-3-3-3-0-0-0-0-0-0-0-0|

Chorus w/ Drive Channel (Distortion)
E|------------------------------------------------------------|
B|------------------------------------------------------------|
G|-5-5-5-5-5-5-5--7-7-7-7-7-7-7-------------------------------|
D|-5-5-5-5-5-5-5--7-7-7-7-7-7-7--7-7-7-7-7-7-7--3-3-3-3-3-3-3-|
A|-3-3-3-3-3-3-3--5-5-5-5-5-5-5--7-7-7-7-7-7-7--3-3-3-3-3-3-3-|
E|-------------------------------5-5-5-5-5-5-5--1-1-1-1-1-1-1-|
...What I know is true!

Bridge is Intro...................

End with Chorus...
     
Добавлено: 31.07.2013
Другие материалы по этой песне:
  • Аккорды и текст

Страница создана 31.07.2013
http://primanota.ru/subcircle/nine-lives-chords.htm
Привет, Гость.
Предлагаем пройти революционный курс по гитаре.
Подарок от PrimaNota.Ru, забирай!