PrimaNota.ru - самый крупный в мире бесплатный архив песенных текстов, аккордов, табулатур и нот


Sub7even - Weatherman - текст песни, таба, видео

Регистрация Запомнить меня
Войти через:  Facebook Google Twitter Vk Yandex Mail.ru

Sub7even - Weatherman - текст песни, таба, видео

Печатать
Просмотров: 194
Авторы музыки: Sven Fischer, Chris Wolff
Авторы текста: Daniel Wirtz
from: MFKNS

+++Weatherman+++
Performed by sub7even


Intro, Verse:

  Dm             C              Bb             A
e--------------|--------------|--------------|--------------
h--------6-----|--------5-----|--------3-----|-----2--------
g-----------7--|-----------5--|-----------3--|--------------
d-----7--------|-----5--------|-----3--------|--------------
a--5-----------|--3-----------|--1-----------|--0-----0--3--
e--------------|--------------|--------------|--------------
     
        I        have...


  Dm             C              G              Bb       C
e--------------|--------------|--------------|--------------
h--------6-----|--------5-----|--------3-----|-----3--------
g-----------7--|-----------5--|-----------4--|--------------
d-----7--------|-----5--------|-----5--------|--------------
a--5-----------|--3-----------|--------------|--1-----1--3--
e--------------|--------------|--3-----------|--------------

        I        have...


Chorus:  Dm    A     C     G             (guitar is overdrived)


Solo:

e---------------------------------------------
h---------------------------------------------
g--7--5--0--2--5--2--0-----0--2--7--9--10--7--
d-----------------------3---------------------
a---------------------------------------------
e---------------------------------------------

Intro
Verse  2x
Chorus 2x
Verse
Chorus 2x
Solo
Verse
Chorus 2x
Outro

Please send corrections to MarkusFalkus@aol.com!

Good luck.
     
Добавлено: 08.10.2013
Вам также может быть интересно:
Другие материалы по этой песне:

Страница создана 17.05.2012
http://primanota.ru/sub7even/weatherman-chords.htm
Привет, Гость.
Предлагаем пройти революционный курс по гитаре.
Подарок от PrimaNota.Ru, забирай!