PrimaNota.ru - самый крупный в мире бесплатный архив песенных текстов, аккордов, табулатур и нот


Styx - Winner Takes All - бас-таба, видео

Регистрация Запомнить меня
Войти через:  Facebook Google Twitter Vk Yandex Mail.ru

Styx - Winner Takes All - бас-таба, видео

Печатать
Просмотров: 28
Winner Takes All
by Styx

Intro
 4/4
  Wx2
|--------||
|--------||
|--------||
|--------||


Verse I
  $
|----------|------------|--------------|----------------|
|----------|------------|--------------|----------------|
|-5--------|-(5)--------|-3---------3--|-(3)------3-----|
|----------|------------|------3-------|-----3-------3--|


|----------|------------|--------------|----------------|
|----------|------------|--------------|-----4----5--7--|
|-5--------|-(5)--------|-3----5----7--|-(7)------------|
|----------|------------|--------------|----------------|


|----------|------------|--------------|----------------|
|----------|------------|--------------|----------------|
|-5--------|-(5)--------|-3---------3--|-(3)------3-----|
|----------|------------|------3-------|-----3-------3--|


|----------------|---------2-(2)-0-----|
|--------------2-|-(2)---2---------2---|
|-0----0-4-0-4---|-----4---------------|
|----------------|---------------------|


                                              To Coda
|-------------------------|------------14-(14)-12------|
|-7----7s11-(11)----11-14-|-(14)-11-14------------14---|
|---10-----------12-------|----------------------------|
|-------------------------|----------------------------|


|-------------------|---------2-(2)-0-----||
|-----------------2-|-(2)---2---------2---||
|-0---0-4-(4)-0-4---|-----4---------------||
|---3---------------|---------------------||


Chorus I

|---------------|------------|---------------|---------------|
|---------------|------------|---------------|---------------|
|-5---5--(5)----|-(5)--------|---------------|---------------|
|---------------|------------|-3----3-3----3-|-3----3-3----3-|


|----------------|---------------|-----------------|-----------------|
|----------------|---------------|-----------------|-----------------|
|-5---5--0-2-3-5-|-(5)---5-0--5--|-3-3-3-3-3-3-3-3-|-3-3-3-3-3-3-3-3-|
|----------------|---------------|-----------------|-----------------|


|----------------|---------------|-----------------|-----------------||
|----------------|---------------|-----------------|-----------------||
|-5---5--0-2-3-5-|-(5)---5-0--5--|-----------------|-----------------||
|----------------|---------------|-3-3-3-3-3-3-3-3-|-3-3-3-3-3-3-3-3-||


Interlude I
                                        3x
||---------2p0-----------|------2h4-2----||
||o------2-----2p0-------|------------4-o||
||o-0--------------3p0---|-0------------o||
||---------------------3-|---------------||


                               D.S. al Coda
|------------2---|------------|--------------||
|----------2-----|------------|--------------||
|-0----3h4-----0-|------------|---------3----||
|----------------|------------|--------------||


Chorus II
  &
  $$
|---------------|------------|---------------|---------------|
|---------------|------------|---------------|---------------|
|-5---5--(5)----|-(5)--------|---------------|---------------|
|---------------|------------|-3----3-3----3-|-3----3-3----3-|


|----------------|---------------|-----------------|-----------------|
|----------------|---------------|-----------------|-----------------|
|-5---5--0-2-3-5-|-(5)---5-0--5--|-3-3-3-3-3-3-3-3-|-3-3-3-3-3-3-3-3-|
|----------------|---------------|-----------------|-----------------|


|----------------|---------------|-----------------|-----------------||
|----------------|---------------|-----------------|-----------------||
|-5---5--0-2-3-5-|-(5)---5-0--5--|-----------------|-----------------||
|----------------|---------------|-3-3-3-3-3-3-3-3-|-3-3-3-3-3-3-3-3-||


Interlude II
                                D.S.S.
                                        3x
||--------2p0------------|------2h4-2----||
||o-----2-----2p0--------|------------4-o||
||o-0-------------3p0----|-0------------o||
||--------------------3--|---------------||


Outro
                                        4x
||---------2p0-----------|------2h4-2----||
||o------2-----2p0-------|------------4-o||
||o-0--------------3p0---|-0------------o||
||---------------------3-|---------------||
Добавлено: 04.10.2015
Другие материалы по этой песне:
  • Аккорды и текст

Страница создана 04.10.2015
http://primanota.ru/styx/winner-takes-all-chords.htm
Привет, Гость.
Предлагаем пройти революционный курс по гитаре.
Подарок от PrimaNota.Ru, забирай!