PrimaNota.ru - самый крупный в мире бесплатный архив песенных текстов, аккордов, табулатур и нот


Styx - Snowblind - текст песни, бас-таба, видео

Регистрация Запомнить меня
Войти через:  Facebook Google Twitter Vk Yandex Mail.ru

Styx - Snowblind - текст песни, бас-таба, видео

Печатать
Просмотров: 118
Авторы музыки: James Young, Dennis DeYoung
Авторы текста: James Young, Dennis DeYoung
standard tuning

:08 
G|------------------------------------------------------------------| 
D|------------------------------------------------------------------|
A|-----------------1~---3~-------------1~---3~-------------1~---3~--|
E|-3-----3~---1~-------------3~---1~-------------3~---1~------------|

:53
G|------------------------------3-----------------------------------------| 
D|--------------------------3-5---5---------------------------------------|
A|-----------1~---3--3--3-5-----------------------------------------------|
E|-3~---1~---------------------------3--3-1--1-3--3-1--1-3--3-1--1-3--3-1-|

1:20
G|--------------------------------------------------------------------3---| 
D|-------1------------------------------1--1------------------------3-----|
A|------------3-1--------5--5----------------1--3-3-3-3-3-3-5-5-5-5-------|
E|-3--1-----------1-3--3------3--3-1--1---------------------------------3-|

1:40
G|------------------------------------------------3----------------------------| 
D|------------------1--1------------------------3------------------------------|
A|---5--5----------------1--3-3-3-3-3-3-5-5-5-5--------------------------------|
E|-3------3--3-1--1---------------------------------3--3-1--1-3--3-1--1-3--3-1-|

2:05
G|-------------------------------------------------------------------------| 
D|-------1-------------1-1--------------------------------------1--1-3-5---|
A|----------------------------3-1--------1-3-----------1-3---------------1-|
E|-3--1-------3-3--1-1------------1-3--3-----1--1-3--3-----1--1------------|

2:27
G|-----------------------3------------------------------------------------------------3---| 
D|---------------------3---------------------------1--1-3-5-------------------------3-----|
A|-3-3-3-3-3-3-5-5-5-5--------------------1-3---------------1--3-3-3-3-3-3-5-5-5-5--------|
E|-------------------------3--3-1--1-3--3-----1--1--------------------------------------3-|

2:45
G|--------------------------------------------------------3---| 
D|----------------------1--1-3-5------------------------3-----|
A|-------------1-3---------------1--3-3-3-3-3-3-5-5-5-5-------|
E|-3-1--1-3--3-----1--1-------------------------------------3-|

2:59
G|---------------------------------------------| 
D|------------------------------------------1~-|
A|---------------------------------------------|
E|-3-1--1-3--3-1--1-3--3-1--1-3--3-1--3--1-----|

3:16
G|----------------------------------------------------------------------3---| 
D|------------------------------------------------------------------3-5---5-|
A|-----------1~---3~-------------1~---3~-------------1~---3--3--3-5---------|
E|-3~---1~-------------3~---1~-------------3~---1~--------------------------|

3:56
G|---------------------------------------------------------------------------------------| 
D|------------------------------------------------------------------------------------1~-|
A|---------------------------------------------------------------------------------------|
E|-3--3-1--1-3--3-1--1-3--3-1--1-3--3-1--1-3--3-1--1-3--3-1--1-3--3-1--1-3--3-1--3--1----|

4:28
G|----8-----8-----8-----8-----8-----8-----8----| 
D|---------------------------------------------|
A|-6-----6-----6-----6-----6-----6-----6-------|
E|-------------------------------------------3-|
Добавлено: 15.06.2012
Другие материалы по этой песне:
  • Аккорды и текст

Страница создана 12.03.2012
http://primanota.ru/styx/snowblind-chords.htm
Привет, Гость.
Предлагаем пройти революционный курс по гитаре.
Подарок от PrimaNota.Ru, забирай!