PrimaNota.ru - самый крупный в мире бесплатный архив песенных текстов, аккордов, табулатур и нот


Styx - Movement For The Common Man - бас-таба, видео

Регистрация Запомнить меня
Войти через:  Facebook Google Twitter Vk Yandex Mail.ru

Styx - Movement For The Common Man - бас-таба, видео

Печатать
Просмотров: 35
Уроки эстрадного вокала в Санкт-Петербурге
Intro
Children Of The Land
  Q=148
               $
 4/4
  Gtr I
  Wx2          a  Q  E  E E  E  E E    E  E  Q   E  E Q
|------------|----------------------|-------10-----------|
|------------|--------------------8-|-10s12-----12s10-8--|
|------------|-8h10--x-10-x-10-10---|--------------------|
|------------|----------------------|--------------------|

  a  Q   +E   E E  E E  E   Q  Q.   Q.
|-------------------------|---------------|
|-------------------------|---------------|
|-8h10--(10)-10---10---10-|----8----------|
|-------------------------|---------8-----|

  a  Q  E  E E  E  E E    E  E  Q   E  E Q
|----------------------|-------10-----------|
|--------------------8-|-10s12-----12s10-8--|
|-8h10--x-10-x-10-10---|--------------------|
|----------------------|--------------------|

  a  Q   +E   E E  E E  E   Q  Q.    Q.
|-------------------------|----------------||
|-------------------------|----8----10-----||
|-8h10--(10)-10---10---10-|----------------||
|-------------------------|----------------||

   Verse
    a  Q  E  E E  E  E E    E  E  Q   E  E Q
||-----------------------|-------10-----------|
||o--------------------8-|-10s12-----12s10-8--|
||o-8h10--x-10-x-10-10---|--------------------|
||-----------------------|--------------------|

  a  Q   +E   E E  E E  E   Q  Q.   Q.
|-------------------------|---------------|
|-------------------------|---------------|
|-8h10--(10)-10---10---10-|----8----------|
|-------------------------|---------8-----|

  a  Q  E  E E  E  E E    E  E  Q   E  E Q
|----------------------|-------10-----------|
|--------------------8-|-10s12-----12s10-8--|
|-8h10--x-10-x-10-10---|--------------------|
|----------------------|--------------------|

                           1.                2.
  a  Q   +E   E E  E E  E   Q  Q.    Q.       Q  Q.   Q  +E
|-------------------------|----------------||------------------||
|-------------------------|----8----10----o||----8----9--(9)\--||
|-8h10--(10)-10---10---10-|---------------o||------------------||
|-------------------------|----------------||------------------||

   Chorus
    E E E E E E E E   E E E E E E E E  3x
||------------------|------------------||
||o-----------------|-------------3-5-o||
||o-3-3---3-3-3---3-|-3-3---3-6-3-----o||
||------------------|------------------||

                                    D.S.
  E E E E E E E E   E E +E  E +E  E +Q
|-----------------|-----------------------||
|-----------------|-----------------------||
|-5-5-3-0-5-5-3-0-|-----------------------||
|-----------------|-6-6-(6)-5-(5)-3-(3)---||

 Interlude I
  a  Q   +E   E E  E  E E    E  E  Q   E  E Q
|-------------------------|-------10-----------|
|-----------------------8-|-10s12-----12s10-8--|
|-8h10--(10)-10---10-10---|--------------------|
|-------------------------|--------------------|

  a  Q   +E   E E  E E  E   Q  Q.   Q.
|-------------------------|---------------|
|-------------------------|---------------|
|-8h10--(10)-10---10---10-|----8----------|
|-------------------------|---------8-----|

     E E  E E H      W         3x
||-----------------|-----------||
||o----------------|----------o||
||o-10---10--------|----------o||
||-----------------|-----------||

   E E  E E  a  Q.    a  E    +E   E  E  E  E E  E E
|-----------10s12----10h12-|-(12)-10------------------|
|--------------------------|---------12-11-10s8-------|
|-10---10------------------|--------------------10-8--|
|--------------------------|--------------------------|

   E E  E E Q.    E    E  E  +E   E  Q   Q
|-------------------|----10-(10)----10--12--|
|----------------10s|=12---------12---------|
|-10---10---8-------|-----------------------|
|-------------------|-----------------------|

   E E  E E  Q   E  E    +E   E  E  E E  E  +Q
|-----------12-----10-|-(10)---------------------||
|---------------12----|------10-12s10-8-10-(10)--||
|-10---10-------------|--------------------------||
|---------------------|--------------------------||

   Bridge
    E E E E E E +E  E   E Q  E E E E E   E E E E E E +E  E   E Q  E E E E E
||--------------------|----------------|-------------------|------------------||
||o-------------------|----------------|-------------------|-----------------o||
||o-----------1-(1)-3-|---3--1-3p1-----|-----------1-(1)-3-|---3--1-3p1------o||
||--3---3---3---------|------------3-1-|-3---3---3---------|------------3-1---||

    E E E E E E E E   E Q  E E E E E   E E E E E E E E   E Q  E E E E E
||------------------|----------------|-----------------|------------------||
||o-----------------|----------------|-----------------|-----------------o||
||o-------------1-3-|---3--1-3p1-----|-------------1-3-|---3--1-3p1------o||
||--3---3-----3-----|------------3-1-|-3---3-----3-----|------------3-1---||

   Guitar Solo I
    E E E E E E +E  E   E Q  E E E E E   E E E E E E +E  E   E Q  E E E E E
||--------------------|----------------|-------------------|------------------||
||o-------------------|----------------|-------------------|-----------------o||
||o-----------1-(1)-3-|---3--1-3p1-----|-----------1-(1)-3-|---3--1-3p1------o||
||--3---3---3---------|------------3-1-|-3---3---3---------|------------3-1---||

    E E E E E E E E   E Q  E E E E E   E E E E E E E E   E Q  E E E E E
||------------------|----------------|-----------------|------------------||
||o-----------------|----------------|-----------------|-----------------o||
||o-------------1-3-|---3--1-3p1-----|-------------1-3-|---3--1-3p1------o||
||--3---3-----3-----|------------3-1-|-3---3-----3-----|------------3-1---||

    E E E E E E +E  E   E Q  E E E E E   E E E E E E +E  E   E Q  E E E E E
||--------------------|----------------|-------------------|------------------||
||o-------------------|----------------|-------------------|-----------------o||
||o-----------1-(1)-3-|---3--1-3p1-----|-----------1-(1)-3-|---3--1-3p1------o||
||--3---3---3---------|------------3-1-|-3---3---3---------|------------3-1---||

 Breakdown
  E E Q  H      Wx7
|-------------|--------||
|-------------|--------||
|-------------|--------||
|-3-----------|--------||

 Percussion Solo
  Wx8
|--------||
|--------||
|--------||
|--------||

 Interlude II
 3/4                           4/4
  H.        H.        H.        E E Q  Q  Q
|---------|---------|---------|--------------|
|-5-------|-3-------|---------|--------5-----|
|---------|---------|-5-------|-3h4-5--------|
|---------|---------|---------|-----------3--|

   2/4    3/4                 4/4
    H      H.        H.        E E Q  Q  Q   6x
||-------|---------|---------|---------------||
||o-5----|-3-------|---------|--------5-----o||
||o------|---------|-5-------|-3h4-5--------o||
||-------|---------|---------|-----------3---||

 2/4    3/4
  H      H.        H.        E E Q  Q
|------|---------|---------|-----------||
|-5----|-3-------|---------|--------5--||
|------|---------|-5-------|-3h4-5-----||
|------|---------|---------|-----------||

 Guitar Solo II
 3/4
  E E E E Q    Q  Q  Q    E E E E Q    Q  Q  Q
|------------|----------|------------|----5--5--|
|---5-----5--|-3-----3--|---5-----5--|----------|
|------------|----3-----|------------|-3--------|
|-3-----3----|----------|-3-----3----|----------|

    E E E E Q    Q  Q  Q    Q  Q  Q    Q  Q  Q
||-------------|-3-----3--|-2-----2--|-1-----1----||
||o---5-----5--|----3-----|----2-----|----1------o||
||o------------|----------|----------|-----------o||
||--3-----3----|----------|----------|------------||

    E E E E Q    Q  Q  Q    E E E E Q    Q  Q  Q    6x
||-------------|----5--5--|------------|------------||
||o---5-----5--|----------|---5-----5--|-3-----3---o||
||o------------|-3--------|------------|----3------o||
||--3-----3----|----------|-3-----3----|------------||

                                                     2/4
  E E E E Q    Q  Q  Q    E E E E E E   E E E E E E   E E E E
|------------|----5--5--|-------------|-------------|---------||
|---5-----5--|----------|---5-----5---|---5-----5---|---5-----||
|------------|-3--------|-------------|-------------|---------||
|-3-----3----|----------|-3-----3-----|-3-----3-----|-3-----3-||

 Street Collage
  Wx24
|---------||
|---------||
|---------||
|---------||

 FanfareforheCommonMan
  Q=160
 4/4
  Q  Q  H      +W           +H     Q  Q    H    Q  Q
|------------|------------|--------------|------------|
|-------5----|-(5)--------|-(5)----------|-5----------|
|----5-------|------------|-----------5--|---------5--|
|-3----------|------------|--------3-----|------3-----|

  W          Q  Q  H      +H     H      H    H
|----------|------------|--------2----|-----------|
|-5--------|----5--3----|-(3)---------|-3---------|
|----------|------------|-------------|-----------|
|----------|-3----------|-------------|------1----|

  W          +H     H      H    H      H    H
|----------|-------------|-----------|-----------|
|----------|-------------|------0----|-----------|
|-3--------|-(3)----3----|-0---------|------2----|
|----------|-------------|-----------|-3---------|

  H    H      +W           H    H      H    H
|-----------|------------|-----------|-----------|
|-----------|------------|-----------|------0----|
|------3----|-(3)--------|------0----|-3---------|
|-3---------|------------|-3---------|-----------|

  E E Q  +H       +H     H      H    H      H    H
|---------------|-------------|-----------|-----------|
|---------------|-------------|-----------|-0----2----|
|-3---3--(3)----|-(3)---------|-0----3----|-----------|
|---------------|--------3----|-----------|-----------|

  E E Q  +H       +W
|---------------|--------||
|---------------|--------||
|---------------|--------||
|-1---1--(1)----|-(1)----||

   Mother Nature's Matinee
    W          +W           W          +W
||-----------|------------|----------|--------|
||o----------|------------|----------|--------|
||o-3--------|-(3)--------|-1--------|-(1)----|
||-----------|------------|----------|--------|
                         1.
  W          +W           W          H    E E Q
|----------|------------|----------|--------------||
|----------|------------|----------|-------------o||
|-0--------|-(0)--------|-0--------|-1s===7------o||
|----------|------------|----------|--------------||

  2.
  H    H      H    H
|-----------|-----------||
|-----------|-----------||
|-0----0----|-0----0----||
|-----------|-----------||

 Pre-Verse
  Wx3          S S S S S S S S S S S S S S S S
|------------|-9-9-9-9-9---9-9-9-9-9---9-9-9---|
|------------|---------------------------------|
|------------|---------------------------------|
|------------|---------------------------------|

    Q.   E +H       Q.   E +H      3x Q.   E +H       Q.   E +Q.   E
||----------------|-2--------------||---------------|-2---------------||
||o------2-(2)----|------2-(2)----o||------2-(2)----|------2-(2)------||
||o-0-------------|---------------o||-0-------------|-----------------||
||----------------|----------------||---------------|--------------3--||

   Verse
    E E E E E Q  E   E E E E E Q  E   E E E E E Q  E   E E E E E Q  E
||-----------------|----------------|----------------|------------------||
||o----------------|----------------|----------------|-----------------o||
||o-2h3---3---3----|-2h3---3---3----|-2h3---3---3----|-2h3---3---3-----o||
||---------------3-|--------------3-|--------------3-|--------------3---||

  Q.   E +H       Q.   E +H       Q.   E +H       Q.   E +Q.   E
|---------------|-2-------------|---------------|-2--------------|
|------2-(2)----|------2-(2)----|------2-(2)----|------2-(2)-----|
|-0-------------|---------------|-0-------------|----------------|
|---------------|---------------|---------------|--------------3-|

    E E E E E Q  E   E E E E E Q  E  3x E E E E E Q  E   E E E E E Q  E
||-----------------|-----------------||----------------|-----------------|
||o----------------|----------------o||----------------|-----------------|
||o-2h3---3---3----|-2h3---3---3----o||-2h3---3---3----|-2h3---3---3--0--|
||---------------3-|--------------3--||--------------3-|-----------------|

  Q.   E +H       Q.   E +H       Q.   E +H       E E +E  E +H
|---------------|-7-------------|---------------|------------------|
|------7-(7)----|------7-(7)----|------7-(7)----|---------2-(2)----|
|-5-------------|---------------|-5-------------|-0h3-(3)----------|
|---------------|---------------|---------------|------------------|

    Q.   E +H       Q.   E +H      3x Q.   E +H       Q.   E +Q.   E
||----------------|-7--------------||---------------|-7---------------|
||o------7-(7)----|------7-(7)----o||------7-(7)----|------7-(7)------|
||o-5-------------|---------------o||-5-------------|-----------------|
||----------------|----------------||---------------|--------------0--|

  E E E E E Q  E   E E E E E Q  E   E E E E E Q  E   E E E E E Q  E
|----------------|----------------|----------------|----------------||
|----------------|----------------|----------------|----------------||
|----------------|----------------|----------------|----------------||
|-3h5---5---5--0-|-3h5---5---5--0-|-3h5---5---5--0-|-3h5---5---5--0-||

   Guitar Solo III
    E E E E E Q  E   E E E E E Q  E   E E E E E Q  E   E E E E E Q  E   4x
||-----------------|----------------|----------------|------------------||
||o----------------|----------------|----------------|-----------------o||
||o----------------|----------------|----------------|-----------------o||
||--3h5---5---5--0-|-3h5---5---5--0-|-3h5---5---5--0-|-3h5---5---5--0---||

   Interlude III
    E E E E E Q  E   E E E E E Q  E   E E E E E Q  E   E E E E E Q  E
||-----------------|----------------|----------------|------------------||
||o----------------|----------------|----------------|-----------------o||
||o----------------|----------------|----------------|-----------------o||
||--3h5---5---5--0-|-3h5---5---5--0-|-3h5---5---5--0-|-3h5---5---5--0---||

  a W          +W           a W          +W
|------------|------------|------------|--------|
|------------|------------|------------|--------|
|------------|------------|------------|--------|
|-3h5--------|-(5)--------|-3h5--------|-(5)----|

  a H.      E E   E E Q  +Q   Q     H.      Q    Q  Q  +Q   Q
|---------------|-----------------|------------|----------------|
|---------------|-7---7--(7)------|------------|-5--5--(5)------|
|-----------5s7-|-------------7\--|---------5--|------------5\--|
|-3h5-----------|-----------------|-3----------|----------------|

  H.      Q    Q  Q  +Q   E E   H.      E E   Q  Q  +Q   Q
|------------|----------------|-------------|---------------|
|------------|-3--3--(3)------|-------------|-7--7--(7)-----|
|---------3--|------------3s7-|---------5h7-|------------7--|
|-1----------|----------------|-5-----------|---------------|

  H.      Q    E E Q  Q  Q     H.      Q    Q  Q  Q  Q
|------------|---------------|------------|--------------|
|------------|-7---7---------|------------|-5--5---------|
|---------7--|--------7------|---------5--|-------5------|
|-5----------|-----------8\--|-3----------|----------3\--|

  H.      Q    Q  Q  Q  Q     H.      E E   Q  Q  +Q   Q
|------------|--------------|-------------|----------------||
|------------|-3--3---------|-------------|-7--7--(7)------||
|---------3--|-------3------|---------5h7-|------------7\--||
|-1----------|----------1/--|-5-----------|----------------||

 Bridge
  a H    Q.   E   E E Q  Q  Q     H    Q.   E   Q  Q  Q  Q
|---------------|---------------|-------------|--------------|
|--------7------|-7---7---------|------5------|-5--5---------|
|-------------7-|--------7------|-----------5-|-------5------|
|-3s5-----------|-----------8\--|-3-----------|----------3\--|

  H    Q.   E   E E Q  Q  Q     H.      E E   Q  Q  +Q   Q
|-------------|---------------|-------------|----------------|
|------3------|-3---3---------|-------------|-7--7--(7)------|
|-----------3-|---3----3------|---------5h7-|------------7\--|
|-1-----------|-----------1/--|-5-----------|----------------|

  a H    Q.   E   E E Q  +Q   Q     H    Q.   E   Q  Q  +Q   Q
|---------------|-----------------|-------------|----------------|
|--------7------|-7---7--(7)--7\--|------5------|-5--5--(5)--5\--|
|-------------7-|-----------------|-----------5-|----------------|
|-3s5-----------|-----------------|-3-----------|----------------|

  H    Q.   E   Q  Q  Q  Q     H.      E E   Q  Q  +Q   Q
|-------------|--------------|-------------|---------------|
|-------------|-3--3---------|-------------|-7--7--(7)-----|
|-----------3-|-------3------|---------5h7-|------------7--|
|-1----1------|----------1/--|-5-----------|---------------|

  Q.   E Q.   E   E E Q  Q  Q     H    Q.   E   Q  Q  Q  Q
|---------------|---------------|-------------|--------------|
|---------------|-7---7---------|------5------|-5--5---------|
|-------------7-|--------7------|-----------5-|-------5------|
|-5----5-5------|-----------8\--|-3-----------|----------3\--|

  H    Q.   E   E E Q  Q  Q     H.      E E   Q  Q  +Q   Q
|-------------|---------------|-------------|---------------|
|------3------|-3---3---------|-------------|-7--7--(7)-----|
|-----------3-|---3----3------|---------5h7-|------------7--|
|-1-----------|-----------1/--|-5-----------|---------------|

    H    Q.   a E   E E Q  E E Q     H    Q.   a E   E E Q  Q  Q
||----------------|----------------|---------------|----------------|
||o---------------|-7---7----------|---------------|-5---5----------|
||o-----------5h7-|----------------|-----------3h5-|----------------|
||--5----5--------|--------7---8\--|-3----3--------|--------3--5\---|

                               1.,2.
  H    Q.   E   E E Q  Q  Q     H.      E E   Q  Q  +Q   Q   3x
|-------------|---------------|-------------|----------------||
|-------------|-3---3---------|-------------|-7--7--(7)-----o||
|-----------3-|---3-----------|---------3s5-|------------7--o||
|-1----1------|--------1--3/--|-5-----------|----------------||

  3.
  W          +W
|----------|--------||
|----------|--------||
|----------|--------||
|-5--------|-(5)----||

 Pre-Verse (Reprise)
  Wx3          S S S S S S S S S S S S S S S S
|------------|-9-9-9-9-9---9-9-9-9-9---9-9-9---|
|------------|---------------------------------|
|------------|---------------------------------|
|------------|---------------------------------|

  E E E E +E  E E E   E E E E +E  E E E
|-------9-(9)-----9-|-------9-(9)-----9-|
|-7---7-------7-----|-7---7-------7-----|
|---0-----------0---|---0-----------0---|
|-------------------|-------------------|

  E E E E +E  E E E   E E E E +E  E E E
|-------9-(9)-----9-|-------9-(9)-----9-|
|-7---7-------7-----|-7---7-------7-----|
|---0-----------0---|---0-----------0---|
|-------------------|-------------------|

  E E E E +E  E E E   E E E E +E  E E E
|-------------------|-2-2-2-------------|
|-------2-(2)-2-2-x-|-------2-(2)-2-2-x-|
|-0-0-0-------------|-------------------|
|-------------------|-------------------|

  E E E E +E  E E E   E E E E +E  E E E
|-------------------|-2-2-2-------------||
|-------2-(2)-2-2-x-|-------2-(2)-2-2-x-||
|-0-0-0-------------|-------------------||
|-------------------|-------------------||

 Guitar Solo IV
  Q.   Q.   Q    +E  Q  E Q  Q    Q.   Q.   Q    E E E E E E E E
|--------------|----------------|--------------|-----------------|
|-4----2-------|-----2----2--4--|--------------|-----------------|
|-----------4--|-(4)----4-------|-2------------|-----------0-1-2-|
|--------------|----------------|------2----0--|-0-1-2-3-4-------|

  Q.   Q.   Q    +E  Q  E Q  Q    Q  E a E E E E E   E E E E E E E E
|--------------|----------------|----------------4-|-5-6-------4-5-6-|
|-4----2-------|-----2----2--4--|-2--------4-6-4---|-----4-6-4-------|
|-----------4--|-(4)----4-------|----2-4s6---------|-----------------|
|--------------|----------------|------------------|-----------------|

    E E E E +E  E E E   E E E E +E  E E E
||--------------------|-------------------|
||o-------------------|-------------------|
||o-0-0-0-2-(2)-2-2-2-|-3-3-3-2-(2)-2-2-2-|
||--------------------|-------------------|

  E E E E +E  E E E   E E E E +E  E E E
|-------------------|---------------------||
|-------------------|--------------------o||
|-0-0-0-2-(2)-2-2-2-|-3-3-3-2-(2)-2-2-2--o||
|-------------------|---------------------||

 Outro
  W          +W           W          +W
|----------|------------|----------|--------|
|----------|------------|----------|--------|
|-3--------|-(3)--------|-1--------|-(1)----|
|----------|------------|----------|--------|

                          |-3-| |-3-|   |-3-| |-3-|
  W          +W           Q Q Q Q Q Q   Q Q Q Q Q Q
|----------|------------|-4-0-2-------|-------------|
|----------|------------|-------4-0-2-|-0-----------|
|-0--------|-(0)--------|-------------|---3-2-0-----|
|----------|------------|-------------|---------3-0-|

  W          +W           W          +H.      E E
|----------|------------|----------|---------------|
|----------|------------|----------|---------------|
|-3--------|-(3)--------|-1--------|-(1)------0h1s=|
|----------|------------|----------|---------------|

  W          +W           +W           +W
|----------|------------|------------|--------*|
|----------|------------|------------|--------*|
|-5--------|-(5)--------|-(5)--------|-(5)----*|
|----------|------------|------------|--------*|
Добавлено: 04.10.2015
Вам также может быть интересно:
Другие материалы по этой песне:
  • Аккорды и текст

Страница создана 04.10.2015
http://primanota.ru/styx/movement-for-common-man-chords.htm
Привет, Гость.
Предлагаем пройти революционный курс по гитаре.
Подарок от PrimaNota.Ru, забирай!