PrimaNota.ru - самый крупный в мире бесплатный архив песенных текстов, аккордов, табулатур и нот


Stutterfly - Silent Scream Broken In Pieces - таба, видео

Регистрация Запомнить меня
Войти через:  Facebook Google Twitter Vk Yandex Mail.ru

Stutterfly - Silent Scream Broken In Pieces - таба, видео

Печатать
Просмотров: 54
Stutterfly - Silent Scream
Album: And We Are Bled Of Color
Year: 2005

Tuning: Drop D
All parts and all guitars.


Tabbed by ADVER




Intro/Verse/Main Riff
Guitar 1
e|-------------------------------------------------|
B|-------------------------------------------------|
G|-11-11--11--11---11-11--11--11------77777-666666-|
D|-11-11--11--11-0-11-11--11--11-0----77777-777777-|
A|--9--9---9---9-0--9--9---9---9-0----55555-555555-|
D|--9--9---9---9-0--9--9---9---9-0----55555-555555-|

00:10
Guitar 2 small lead bit 
e|---------9h10p9------|
B|-8/10-10---------10\-|
G|---------------------|
D|---------------------|
A|---------------------|
D|---------------------|
      x  x


Chorus
Guitar 1
e|---------------------------|
B|---------------------------|
G|-------------------4444444-|
D|-00000000000-5-4-0-4444444-|
A|-00000000000-5-4-0-2222222-|
D|-00000000000-5-4-0---------|

Guitar 2 2nd half of Chorus
e|------------------------------|
B|------------------------------|
G|-6/7\6666-11-11-11--9-999-777-|
D|-x-x-xxxx--x--x--x--x-xxx-xxx-|
A|-4/5\4444--9--9--9--7-777-555-|
D|------------------------------|

Guitar 2 cont.
e|------------------------------------------|
B|------------------------------------------|
G|-6/7\6666-11-11-11--13--13-13-13-14-14-14-|
D|-x-x-xxxx--x--x--x---x---x--x--x--x--x--x-|
A|-4/5\4444--9--9--9--11--11-11-11-12-12-12-|
D|------------------------------------------|


Intro/Verse/Main Riff
Guitar 1
e|-------------------------------------------------|
B|-------------------------------------------------|
G|-11-11--11--11---11-11--11--11------77777-666666-|
D|-11-11--11--11-0-11-11--11--11-0----77777-777777-|
A|--9--9---9---9-0--9--9---9---9-0----55555-555555-|
D|--9--9---9---9-0--9--9---9---9-0----55555-555555-|

01:02
Guitar 2 small lead bit 
e|---------9h10p9------|
B|-8/10-10---------10\-|
G|---------------------|
D|---------------------|
A|---------------------|
D|---------------------|
      x  x 

01:02
Alternate Guitar Harmony for Guitar 2
e|----------------------|
B|----------------------|
G|---------10h11p10-----|
D|-9/11-11----------11\-|
A|----------------------|
D|----------------------|
      x  x 


Bridge
Guitar 1 (Clean)
e|--------------------------------------------|
B|--------------------------------------------|
G|--------------------------------------------|
D|---4-2--4-2------------------------------2--|
A|-22-2-22-2-22--4h5p4-0----5-4--5-4----2-5-5-|
D|------------------------55-5-55-5-55--------|

Guitar 2 (Clean)
e|------------------------------------------------------------------------------|
B|------------------------------------------------------------------------------|
G|------------------------------------------------------------------------------|
D|-99999-777-9999-777-77777-555-7777-555--99999-777-9999-777-77777-555-7777-555-|
A|------------------------------------------------------------------------------|
D|------------------------------------------------------------------------------|
   xxxxx xxx xxxx xxx xxxxx xxx xxxx xxx  xxxxx xxx xxxx xxx

Alternate Guitar Harmony for Guitar 2 (Clean)
e|----------------------------------------------------------------------------|
B|----------------------------------------------------------------------------|
G|-7777-666-77777-666-6666-444-6666-444--7777-666-77777-666-6666-444-6666-444-|
D|----------------------------------------------------------------------------|
A|----------------------------------------------------------------------------|
D|----------------------------------------------------------------------------|
   xxxx xxx xxxxx xxx XXXX XXX XXXX XXX  XXXX XXX XXXXX XXX


Breakdown (x4)
Guitar 1
e|----------------------------------|
B|----------------------------------|
G|---------------------77777-666666-|
D|-99999-----99999-----77777-777777-|
A|-99999-----99999-----55555-555555-|
D|-99999-000-99999-000-55555-555555-|
   xxxxx     xxxxx 

Chorus
Guitar 1
e|---------------------------|
B|---------------------------|
G|-------------------4444444-|
D|-00000000000-5-4-0-4444444-|
A|-00000000000-5-4-0-2222222-|
D|-00000000000-5-4-0---------|

Guitar 2 2nd half of Chorus
e|------------------------------|
B|------------------------------|
G|-6/7\6666-11-11-11--9-999-777-|
D|-x-x-xxxx--x--x--x--x-xxx-xxx-|
A|-4/5\4444--9--9--9--7-777-555-|
D|------------------------------|

Guitar 2 cont.
e|------------------------------------------|
B|------------------------------------------|
G|-6/7\6666-11-11-11--13--13-13-13-14-14-14-|
D|-x-x-xxxx--x--x--x---x---x--x--x--x--x--x-|
A|-4/5\4444--9--9--9--11--11-11-11-12-12-12-|
D|------------------------------------------|

Outro
Guitar 1
e|------------------------------------------------------------|
B|------------------------------------------------------------|
G|---------------------4444444---------------------4444444----|
D|-0-0-0-00-00-0-5-4-0-4444444-0-0-0-00-00-0-5-4-0-4444444-0~-|
A|-0-0-0-00-00-0-5-4-0-2222222-0-0-0-00-00-0-5-4-0-2222222-0~-|
D|-0-0-0-00-00-0-5-4-0---------0-0-0-00-00-0-5-4-0---------0~-|
       x    xx                     x    xx
Добавлено: 02.12.2013
Другие материалы по этой песне:
  • Аккорды и текст

Страница создана 02.12.2013
http://primanota.ru/stutterfly/silent-scream-broken-in-pieces-chords.htm
Привет, Гость.
Предлагаем пройти революционный курс по гитаре.
Подарок от PrimaNota.Ru, забирай!