PrimaNota.ru - самый крупный в мире бесплатный архив песенных текстов, аккордов, табулатур и нот


Stutterfly - Gun In Hand - аккорды и текст, таба, бас-таба, видео

Регистрация Запомнить меня
Войти через:  Facebook Google Twitter Vk Yandex Mail.ru

Stutterfly - Gun In Hand - аккорды и текст, таба, бас-таба, видео

Печатать
Просмотров: 190
Gun In Hand
Stutterfly
		   Author/Artist: stutterfly
Title: gun in hand
Album: broken in pieces
Transcribed by: jason johnson
Email: jgeckoking@hotmail.com

Tuning: Drop D

 > = natural harmonic
. = palm mute
x = mute string

10/9/02: haha, thanks for the 2 on this one and the 1 on my other tab dude. anyways, i updated the intro, inspired by the other tab. I still think this sounds better.

intro/chorus: guitar 1
------------------------------------------------------------------------------
------------------------------------------------------------------------------
------------------------------------------------------------------------------
-4444-6666-7777-6666--1-0--0-1-0--0-1-0--0-0----------------------------------
-4444-4444-4444-4444--1-0--0-1-0--0-1-0--0-0----------------------------------
-4444-4444-4444-4444--1-0--0-1-0--0-1-0--0-0----------------------------------


intro/chorus: guitar 2
------------------------------------------------------------------------------
------------------------------------------------------------------------------
-6-6-6-6---8-8-8-8--9-9-9-9--8-8-8-8------------------------------------------
-x-x-x-x---x-x-x-x--x-x-x-x--x-x-x-x------------------------------------------
-4-4-4-4---6-6-6-6--7-7-7-7--6-6-6-6------------------------------------------
------------------------------------------------------------------------------

verse 1:
------------------------------------------------------------------------------
------------------------------------------------------------------------------
------------------------------------------------------------------------------
-0-4-4-4--0-4-4-4--1-0-0-0--1-0-0-0-------------------------------------------
-0-4-4-4--0-4-4-4--1-0-0-0--1-0-0-0-------------------------------------------
-0-4-4-4--0-4-4-4--1-0-0-0--1-0-0-0-------------------------------------------
 . . . .  . . . .  . . . .  . . . .


verse 2:
------------------------------------------------------------------------------
------------- 7>--------------- 7>--------------------------------------------
---------- 7>--- 7>-------- 7>----- 7>--------- 7>--- 7>--------- 7>---- 7>---
-0-4-4-4-----------0-4-4-4------------1-0-0-0----- 7>---1-0-0-0----- 7>-------
-0-4-4-4-----------0-4-4-4------------1-0-0-0-----------1-0-0-0---------------
-0-4-4-4-----------0-4-4-4------------1-0-0-0-----------1-0-0-0---------------
 . . . .           . . . .            . . . .           . . . .

verse 3: guitar 1
------------------------------------------------------------------------------
------------------------------------------------------------------------------
------------------------------------------------------------------------------
-0-4-4-4-4-4-4-4-4-0-4-4-4-4-4-4-4-4-1-0-0-0-0-0-0-0-1-0-0-0-0-0-0-0----------
-0-4-4-4-4-4-4-4-4-0-4-4-4-4-4-4-4-4-1-0-0-0-0-0-0-0-1-0-0-0-0-0-0-0----------
-0-4-4-4-4-4-4-4-4-0-4-4-4-4-4-4-4-4-1-0-0-0-0-0-0-0-1-0-0-0-0-0-0-0----------


verse 3: guitar 2
------------------------------------------------------------------------------
-- 7>-------- 7>----------- 7>---------- 7>------ 7>----- 7>------------------
----- 7>-- 7>----- 7>-- 7>----- 7>-- 7>------ 7>----- 7>------ 7>---------- 7>
------------------------------------------------------------------- 7>-- 7>---
------------------------------------------------------------------------------
------------------------------------------------------------------------------

cont'd:
----------------------------------------|---|----------------------------------
----------------------------------------|---|- 7>---- 7>----- 7>---- 7>--------
--------- 7>-------- 7>----- 7>----- 7>-|---|----- 7>---- 7>----- 7>---- 7>----
 7>- 7>---- 7>- 7>----- 7>----- 7>------|-X2|---------------------------------
----------------------------------------|---|----------------------------------
----------------------------------------|---|----------------------------------

interlude:
------------------------------------------------------------------------------
------------------------------------------------------------------------------
------------------------------------------------------------------------------
-----7--6--------------7--6------------7-6-----------7--6---------------------
------------7--5--------------7--5-----------7--5----------7--5---------------
--4----------------4----------------0--------------0--------------------------

cont'd:
------------------------------------------------------------------------------
------------------------------------------------------------------------------
------------------------------------------------------------------------------
--0-0-4--7-6-------0-0-4--7-6-------0-0-0--7-6-----0-0-0-7-6------------------
--0-0-4-------7-5--0-0-4-------7-5--0-0-0------7-5-0-0-0------7-5-------------
--0-0-4------------0-0-4------------0-0-0----------0-0-0----------------------
  . .              . .              . .            . .

post interlude: acoustic
------------------------------------------------------------------------------
------------------------------------------------------------------------------
------------------------------------------------------------------------------
-4-4-4-4--6-6-6-6--7-7-7-7--6-6-6-6------0-- --distortion kicks in here-------
-4-4-4-4--4-4-4-4--4-4-4-4--4-4-4-4------0------------------------------------
-4-4-4-4--4-4-4-4--4-4-4-4--4-4-4-4------0------------------------------------

post interlude guitar 2:
------------------------------------------------------------------------------
------------------------------------------------------------------------------
-6-6-6-6---8-8-8-8--9-9-9-9--8-8-8-8------------------------------------------
-x-x-x-x---x-x-x-x--x-x-x-x--x-x-x-x------------------------------------------
-4-4-4-4---6-6-6-6--7-7-7-7--6-6-6-6------------------------------------------
------------------------------------------------------------------------------

outro guitar 1:
------------------------------------------------------------------------------
------------------------------------------------------------------------------
------------------------------------------------------------------------------
-4444-6666-7777-6666--1-0--0-1-0--0-1-0--0-0----------------------------------
-4444-4444-4444-4444--1-0--0-1-0--0-1-0--0-0----------------------------------
-4444-4444-4444-4444--1-0--0-1-0--0-1-0--0-0----------------------------------
                      . .  . . .  . . .  . .


outro guitar 2:
------------------------------------------------------------------------------
------------------------------------------------------------------------------
-6-6-6-6---8-8-8-8--9-9-9-9--8-8-8-8------------------------------------------
-x-x-x-x---x-x-x-x--x-x-x-x--x-x-x-x------------------------------------------
-4-4-4-4---6-6-6-6--7-7-7-7--6-6-6-6------------------------------------------
------------------------------------------------------------------------------     
Добавлено: 18.11.2013
Другие материалы по этой песне:

Страница создана 22.02.2012
http://primanota.ru/stutterfly/gun-in-hand-chords.htm
Привет, Гость.
Предлагаем пройти революционный курс по гитаре.
Подарок от PrimaNota.Ru, забирай!