PrimaNota.ru - самый крупный в мире бесплатный архив песенных текстов, аккордов, табулатур и нот


Sturm Und Drang - Forever - таба, видео

Регистрация Запомнить меня
Войти через:  Facebook Google Twitter Vk Yandex Mail.ru

Sturm Und Drang - Forever - таба, видео

Печатать
Просмотров: 144
Уроки эстрадного вокала в Санкт-Петербурге
I think it goes like this...

INTRO:
|-------------------------------------------------------------------------|
|-9-11-12-12-11-9-7-9-11-9--9-7-9--------9-11-12-12-11-9-7-9-11-9---------|
|---------------------------------8-6-4-8---------------------------------|
|-------------------------------------------------------------------------|
|-------------------------------------------------------------------------|
|-------------------------------------------------------------------------|

|-------------------------------------------------------------------------|
|-9-7-9-------------------------------------------------------------------|
|------8-6-4-8------------------------------------------------------------|
|-------------------------------------------------------------------------|
|-------------------------------------------------------------------------|
|-------------------------------------------------------------------------|

(en osaa merkitä, mutta ensimmäisen rivin ja tokan rivin h-kielen kahdeksas on sellainen 
kikkailu...)
This is my first tab what I ever wrote, well I hope that you don't be angry... (And I 
speak english verywell... ;D)

|--------------------------------------------------------------------------|
|--------------------------------------------------------------------------|
|-------6-6-6-------8-8-8--------------------------------------------------|
|-3-3-3-6-6-6-6-6-6-8-8-8--------------------------------------------------|
|-3-3-3-4-4-4-6-6-6-6-6-6--------------------------------------------------|
|-1-1-1-------4-4-4--------------------------------------------------------|

|-------------------------| 2x
Like a child, with no troubles in mind
Young and wild, not a thing that I feared


|--------------------------------------------------------------------------|
|--------------------------------------------------------------------------|
|-------6-6-6-------8-8-8--3-5-6-------------------------------------------|
|-3-3-3-6-6-6-6-6-6-8-8-8--------------------------------------------------|
|-3-3-3-4-4-4-6-6-6-6-6-6--------------------------------------------------|
|-1-1-1-------4-4-4--------------------------------------------------------|

No winter's here, in this darkness I look up and long for my freedom

(en tiedä loppu sointua...)

CHORUS:
|--------------------------------------------------------------------------|
|--------------------------------------------------------------------------|
|--------------------------------------------------------------------------|
|----4-----6---------------------------------------------------------------|
|-6--2--4--4--2--4--6---2-x-2--4-x-4---------------------------------------|
|-4-----2-----0--2--4---0-x-0--2-x-2---------------------------------------|

Out of the ashes I'm rising anew
Drowning my sorrow and pain

|--------------------------------------------------------------------------|
|--------------------------------------------------------------------------|
|--------------------------------------------------------------------------|
|------------4-x-4-x-4-------------6-x-6-x-6-------------------------------|
|-6-x-6-x-6--2-x-2-x-2--4-x-4-x-4--4-x-4-x-4--2-x-2-x-2--4-x-4-x-4--5------|
|-4-x-4-x-4-------------2-x-2-x-2-------------0-x-0-x-0--2-x-2-x-2--3------|

Just like a wind and the stars will never die
Forever I will stay this way


And the same one more time, without INTRO. I can't play the solo. :D


But, enjoy
Добавлено: 28.07.2012
Другие материалы по этой песне:
  • Аккорды и текст

Страница создана 28.07.2012
http://primanota.ru/sturm-und-drang/forever-chords.htm
Привет, Гость.
Предлагаем пройти революционный курс по гитаре.
Подарок от PrimaNota.Ru, забирай!