PrimaNota.ru - самый крупный в мире бесплатный архив песенных текстов, аккордов, табулатур и нот


Stun - Movement - таба, видео

Регистрация Запомнить меня
Войти через:  Facebook Google Twitter Vk Yandex Mail.ru

Stun - Movement - таба, видео

Печатать
Просмотров: 124
SOng - MOVEMENT
ARTIST - S.T.U.N.
Album   -  Evoluton of Energy

Send me if u had any comments to (antipunkrocker@gmail.com)


Guitar 1
|------------------------------------|
|------------------------------------|
|------------------------------------|
|-22--22--22--22--22------22------22------22-------|
|-22--22--22--22--22------22------22------22-------|
|-00--00--00--00--00------00------00------00-------|
Guitar 2
|--------------------------------------------------|
|--------------------------------------------------|
|---------------------4444----5555----4444----5555-|
|---------------------xxxx----xxxx----xxxx----xxxx-|
|---------------------2222----3333----2222----3333-|
|-----------------0000----0000----0000----0000-----|
( the space between our bodies has been corrupted )
|-------------------------------------------------------------|
|---12-10-12-12-12--13-12-13-13-13--12-10-12-12--13-12-13-13--|
|-------------------------------------------------------------|
|-22--------------22--------------22-----------22-------------| 
|-22--------------22--------------22-----------22-------------|
|-00--------------00--------------00-----------00-------------|
Pm..              ..              ..           ..
|---------------------------------------------------------------|
|---12-10-12-12-12--13-12-13-13-13--12-10-12-12--13-12-13-13-13-|
|-------------------------------------------------------------|
|-22--------------22--------------22-----------22-------------| 
|-22--------------22--------------22-----------22-------------|
|-00--------------00--------------00-----------00-------------|
  ..              ..              ..           ..

|-----------------------|
|-----------------------|
|-9-9-99-9-1111-121212--|
|-x-x-xx-x--x-x--x-x-x--|  x2
|-7-7-77-7--9-9-101010--|
|-----------------------|

|------------------------------------|
|------------------------------------|
|-9-9-99-9-9-7777-9-9-99-9-9-12------|
|-x-x-xx-x-x-xxxx-x-x-xx-x-x--x------|
|-7-7-77-7-7-5555-7-7-77-7-7-10------|
|------------------------------------|
 chorus
|------------------------------------|
|------------------------------------|
|------------------------------------|
|-------------------<7><7><7>--------|
|-5-7----5-7----5-7------------55----|
|-3\5----3\5----3\5------------33----|
( we are just a moment away......)
|----------------------|
|----------------------|
|----------------------|
|---------------5--55--|
|-77-5-7-5-77-5-3--33--|
|-55-3-5-3-55-3--------|
 (we are just a moment away)

|------------------------------------|
|------------------------------------|
|------------------------------------|
|------------------------------------|
|-------------------12-12-----------------12-12---|
|-------------------10-10-----------------10-10---|
( it's not every one     it will be no one      )
|------------------------------------|
|------------------------------------|
|-----9-9-----12-12------------------|
|-2222x-x-2222-x--x------------------| x2
|-22227-7-222210-10------------------|
|-0000----0000-----------------------|

|------------------------------------|
|------------------------------------|
|-999999998888888877xx77xx77xx78-----|
|-xxxxxxxxxxxxxxxxxxxxxxxxxxxxxx-----|
|-777777776666666655xx55xx55xx56-----|
|------------------------------------|
( and the brothers and sisters...)
|------------------------------------|
|------------------------------------|
|-9999999988888888777777xx77xx78-----|
|-xxxxxxxxxxxxxxxxxxxxxxxxxxxxxx-----|
|-7777777766666666555555xx55xx56-----|
|------------------------------------|
( and the brothers and sisters...)
|------------------------------------|
|------------------------------------|
|------------------------------------|
|-99--1212--99--1212--99--77--99--77-|
|-xx---x-x--xx---x-x--xx--xx--xx--xx-|
|-77--1010--77--1010--77--55--77--55-|

|--------------------------------------|
|--------------------------------------|
|--------------------------------------|
|-99--1412--99--1412--99--712--99--712-|
|-xx---x-x--xx---x-x--xx--x-x--xx--x-x-|
|-77--1210--77--1210--77--510--77--510-|

|------------------------------------|
|------------------------------------|
|---9-9-99---9-9-99------------------|
|-22x-x-xx-22x-x-xx---22---22--------|
|-227-7-77-227-7-77---22---22--------|
|-00000000-00000000---00---00--------| Fine.
Добавлено: 20.04.2012
Другие материалы по этой песне:
  • Аккорды и текст

Страница создана 20.04.2012
http://primanota.ru/stun/movement-chords.htm
Привет, Гость.
Предлагаем пройти революционный курс по гитаре.
Подарок от PrimaNota.Ru, забирай!