PrimaNota.ru - самый крупный в мире бесплатный архив песенных текстов, аккордов, табулатур и нот


Student Rick - South Of Blackford - текст песни, таба, видео

Регистрация Запомнить меня
Войти через:  Facebook Google Twitter Vk Yandex Mail.ru

Student Rick - South Of Blackford - текст песни, таба, видео

Печатать
Просмотров: 87
		   Author/Artist: Student Rick
Title: South Of Blackford
Album: Soundtrack For A Generation
Transcribed by: Tom Ryan
Email: t_h_ryan@hotmail.com

This is the intro to this song. It's played on two clean electric guitars,
one in each stereo channel.

This is what the guitar on the right plays:

------------------------------------------------------------------------------
------6-----6------8-----6-----6-------6-----6-----8-----6-----6--------------
----7---7-----7------7-----7-----7---7---7-----7-----7-----7-----7------------
--8-------8-----8------8-----8-----7-------7-----7-----7-----7----------------
------------------------------------------------------------------------------
------------------------------------------------------------------------------


------------------------------------------------------------------------------
------3-----3-----4h3---3-----3-------3-----3------4-----4-----4--------------
----3---3-----3-----------5-----5-------3-----3------3-----3-----3------------
--5-------5-----5-----5-----5-------1-----1-----1------1-----1----------------
------------------------------------------------------------------------------
------------------------------------------------------------------------------


The guitar on the left plays this:

------------------------------------------------------------------------------
----3---4-----6-----4-----3---------1-----3-----4-----3-----1-----------------
--3---3---3-3---3-3---3-3---3---2-2---2-2---2-2---2-2---2-2---2---------------
------------------------------------------------------------------------------
------------------------------------------------------------------------------
------------------------------------------------------------------------------


---------------------------------------------------3--------------------------
---------------------------------------4-----6-----------6-----4--------------
------3-----5-----3-----3-----3----3-3---3-3---3-3---3-3---3-3---3------------
--5-5---5-5---5-5---5-5---5-5-------------------------------------------------
------------------------------------------------------------------------------
------------------------------------------------------------------------------

That's all there is to it!

_________________________________________________________________
     
Добавлено: 08.07.2013
Вам также может быть интересно:
Другие материалы по этой песне:
  • Аккорды и текст

Страница создана 30.05.2012
http://primanota.ru/student-rick/south-of-blackford-chords.htm
Привет, Гость.
Предлагаем пройти революционный курс по гитаре.
Подарок от PrimaNota.Ru, забирай!