PrimaNota.ru - самый крупный в мире бесплатный архив песенных текстов, аккордов, табулатур и нот


Student Rick - Midway - текст песни, таба, бас-таба, видео

Регистрация Запомнить меня
Войти через:  Facebook Google Twitter Vk Yandex Mail.ru

Student Rick - Midway - текст песни, таба, бас-таба, видео

Печатать
Просмотров: 86
-------------------------------------------------------------------------------
                            MIDWAY - Student Rick
-------------------------------------------------------------------------------
Tabbed by: Zach C.
E-mail: aeronhzach@aol.com

This is only the rhythm guitar from the song.

Tuning: Standard EADGBe

:21 - Intro
e|---------------------------------------------------------------------------|
B|---------------------------------------------------------------------------|
G|---------------------------------------------------------------------------|
D|-9-9--7-7----------------------9-9--7-7------------------------------------|
A|-7-7--5-5--9-9--10-10--10/12---7-7--5-5--9-9--10-10--10-10-10/12-----------|
E|-----------7-7--8--8----8/10-------------7-7---8--8---8--8--8/10-----------|

e|---------------------------------------------------------------------------|
B|---------------------------------------------------------------------------|
G|---------------------------------------------------------------------------|
D|-9-9--9-9--7-7--7-7--7-7-7-7-----------------------------------------------| x2
A|-7-7--7-7--5-5--5-5--5-5-5-5--9-9--9-9--10-10--10-10--10/12----------------|
E|------------------------------7-7--7-7---8--8---8--8---8/10----------------|

:41 - Verse
e|--------------------------------------|
B|--------------------------------------|
G|--------------------------------------|
D|-9-let---7-let------------------------| x2
A|-7-ring--5-ring--9-let---10-let-------|
E|-----------------7-ring--8--ring------|
  PM..............................................................
e|---------------------------------------------------------------------------|
B|---------------------------------------------------------------------------|
G|---------------------------------------------------------------------------|
D|-9-9-9-9-9-9-9-9-7-7-7-7-7-7-7-7-------------------------------------------| x2
A|-7-7-7-7-7-7-7-7-5-5-5-5-5-5-5-5-9-9-9-9-9-9-9-9-1010101010101010----------|
E|---------------------------------7-7-7-7-7-7-7-7-8-8-8-8-8-8-8-8-----------|

1:00 - Pre-Chorus
e|-------------------------------|
B|-------------------------------|
G|-------------------------------|
D|-9-9--9-9--7-7-----------------| x3
A|-7-7--7-7--5-5--9-9---10-let---|    |-5--5--|
E|----------------7-7---8--ring--|    |-3--3--|

1:19 - Chorus
e|---------------------------------------------------------------------------|
B|---------------------------------------------------------------------------|
G|---------------------------------------------------------------------------|
D|-5-----------7-----9-----5-----------7---------------5-5--5-5--------------|
A|-3-x12-5-----5-x12-7-x12-3-x12-5-----5-x12-2-2--2-2--3-3--3-3--------------|
E|-------3-x12-------------------3-x12-------0-0--0-0------------------------|

e|----------------------------------------------------------------------------|
B|----------------------------------------------------------------------------|
G|----------------------------------------------------------------------------|
D|-------7-----9-9-9-9-7-7-7-7-9-9-9-9-7-7-7-7-5-----------7-----9-let--------|
A|-5-----5-x12-7-7-7-7-5-5-5-5-7-7-7-7-5-5-5-5-3-x12-5-----5-x12-7-ring-5-let-|
E|-3-x12---------------------------------------------3-x12--------------3-ring|


************************************

| /     slide up
  let
| ring  sustain preceding chord
| x#    play preceding chord # of times

************************************
Добавлено: 17.11.2015
Другие материалы по этой песне:
  • Аккорды и текст

Страница создана 19.05.2012
http://primanota.ru/student-rick/midway-chords.htm
Привет, Гость.
Предлагаем пройти революционный курс по гитаре.
Подарок от PrimaNota.Ru, забирай!