PrimaNota.ru - самый крупный в мире бесплатный архив песенных текстов, аккордов, табулатур и нот


Stuck In Your Radio - Homies Unite - таба, бас-таба, видео

Регистрация Запомнить меня
Войти через:  Facebook Google Twitter Vk Yandex Mail.ru

Stuck In Your Radio - Homies Unite - таба, бас-таба, видео

Печатать
Просмотров: 44
-------------------------------------------------------------------------------
            homies unite - Stuck in your radio
-------------------------------------------------------------------------------
Tabbed by:Tomas Torrini
E-mail:Torrinitd@hotmail.com


intro guitar 1
                                               end here |  the second time.
e|------------------------------------------------------|--------------------|
B|---------------------------------------------------------------------------|
G|---------------------------------------------------------------------------|x2
D|-----------4-0-----4-0-5-0-7-5-4-------------4-0-----4-0-----4-------------|   
A|---0-0-5-0-----5-0-------------------0-0-5-0-----5-0-----5-0---------------|
E|---------------------------------------------------------------------------|

e|---------------------------------------------------------------------------|
B|---------------------------------------------------------------------------|
G|---------------------------------------------------------------------------|
D|-----------4-0-----4-0-5-0-7-5-4---12-12-12-12-11-11-11-11-7-7-7-7-7-5-4---|
A|---0-0-5-0-----5-0---------------------------------------------------------|
E|---------------------------------------------------------------------------|

e|---------------------------------------------------------------------------|
B|---------------------------------------------------------------------------|
G|---------------------------------------------------------------------------|
D|-----------4-0-----4-0-5-0-7-5-4-5--5-5-5-5-4-4-4-4-2-2-2-2-2-2-2-0--------|
A|---0-0-5-0-----5-0---------------------------------------------------------|
E|---------------------------------------------------------------------------|

e|---------------------------------------------------------|
B|---------------------------------------------------------|
G|----7--x-x-7-x-7-7-x-7-7---------------------------------|
D|----7--x-x-7-x-7-7-x-7-7-----7-----7---5-5----5-5--------|  x2
A|----5--x-x-5-x-5-5-x-5-5-----7-----7---5-5----5-5--------|
E|-----------------------------5-x-x-5-x-3-3--x-3-3--------|

e|------------------------------------------------------------------|
B|------------------------------------------------------------------|
G|-----7-7-7-7-7-7-7-7-7-14-14-14-12-9-11-11-11-11-11-12-12-12-11-9-|
D|-----7-7-7-7-7-7-7-7-7-14-14-14-12-9-11-11-11-11-11-12-12-12-11-9-| 
A|-----5-5-5-5-5-5-5-5-5-12-12-12-10-7-9--9--9--9--9--10-10-10-9--7-|
E|------------------------------------------------------------------|

e|--------------------------------------------------------------------|
B|--------------------------------------------------------------------|
G|-----7-7-7-7-7-7-7-7-14-14-14-12-9-11-11-11-11-11-11-11-11-12-------|
D|-----7-7-7-7-7-7-7-7-14-14-14-12-9-11-11-11-11-11-11-11-11-12-------|
A|-----5-5-5-5-5-5-5-5-12-12-12-10-7-9--9--9--9--9--9--9--9--10-------|
E|--------------------------------------------------------------------|

e|---------------------------------------------------------|
B|---------------------------------------------------------|
G|----7--x-x-7-x-7-7-x-7-7---------------------------------|
D|----7--x-x-7-x-7-7-x-7-7-----7-----7---5-5----5-5--------|  x2
A|----5--x-x-5-x-5-5-x-5-5-----7-----7---5-5----5-5--------|
E|-----------------------------5-x-x-5-x-3-3--x-3-3--------|

e|------------------------------------------------------------------|
B|------------------------------------------------------------------|
G|-----7-7-7-7-7-7-7-7-7-14-14-14-12-9-11-11-11-11-11-12-12-12-11-9-|
D|-----7-7-7-7-7-7-7-7-7-14-14-14-12-9-11-11-11-11-11-12-12-12-11-9-| 
A|-----5-5-5-5-5-5-5-5-5-12-12-12-10-7-9--9--9--9--9--10-10-10-9--7-|
E|------------------------------------------------------------------|

e|--------------------------------------------------------------------|
B|--------------------------------------------------------------------|
G|-----7-7-7-7-7-7-7-7-14-14-14-12-9-11-11-11-11-11-11-11-11-12-------|
D|-----7-7-7-7-7-7-7-7-14-14-14-12-9-11-11-11-11-11-11-11-11-12-------|
A|-----5-5-5-5-5-5-5-5-12-12-12-10-7-9--9--9--9--9--9--9--9--10-------|
E|--------------------------------------------------------------------|


e|-------------------------------------------------------|
B|-------------------------------------------------------|
G|-------------------------------------------------------|
D|--------7-4--------7-4-------9-9-9-9-9-7-7-------------| x3
A|----5-5-----5-5--5-----5-7-5---------------------------|
E|-------------------------------------------------------|

e|-----------------------------------|
B|-----------------------------------|
G|-----------------------------------|
D|-----------------------------------|
A|--10-9-7-5-10-10-10-9-7-5-5--------|
E|-----------------------------------|

  guitar 2
e|------------------------------------------------------------|
B|------------------------------------------------------------|
G|------------------------------------------------------------|
D|------------------------------------------------------------| x6
A|----5--5--5----5--5--5-7-7-7-7-5--5--5--4--4--4-4-4-4-4-4---|
E|------------------------------------------------------------|
  guitar 1
e|------------------------------------|
B|------------------------------------|
G|------------------------------------|x2
D|-----------4-0-----4-0-5-0-7-5-4----|   
A|---0-0-5-0-----5-0------------------|
E|------------------------------------|

e|---------------------------------------------------------------------------|
B|---------------------------------------------------------------------------|
G|---------------------------------------------------------------------------|
D|-----------4-0-----4-0-5-0-7-5-4---12-12-12-12-11-11-11-11-7-7-7-7-7-5-4---|
A|---0-0-5-0-----5-0---------------------------------------------------------|
E|---------------------------------------------------------------------------|

e|---------------------------------------------------------------------------|
B|---------------------------------------------------------------------------|
G|---------------------------------------------------------------------------|
D|-----------4-0-----4-0-5-0-7-5-4-5--5-5-5-5-4-4-4-4-2-2-2-2-2-2-2-0--------|
A|---0-0-5-0-----5-0---------------------------------------------------------|
E|---------------------------------------------------------------------------|
  guitar 1
e|-------------------------------------------------------|
B|-------------------------------------------------------|
G|-------------------------------------------------------|
D|--------7-4--------7-4-------9-9-9-9-9-7-7-------------| 
A|----5-5-----5-5--5-----5-7-5---------------------------|
E|-------------------------------------------------------|

e|-------------------------------------------------------|
B|-------------------------------------------------------|
G|-------------------------------------------------------|
D|--------7-4--------7-4-------9-9-9-9-9-7-7-------------| x3
A|----5-5-----5-5--5-----5-7-5---------------------------|
E|-------------------------------------------------------|

guitar 2
e|-----------------------------------|
B|-----------------------------------|
G|----7------------------------------|
D|----7--------------------5---------| x2
A|----5--------------------5---------|
E|-------------------------3---------|
  
e|-------------------------------------------|
B|-------------------------------------------|
G|----7--------------------------------------|
D|----7---------7----------9-----------5-----| 
A|----5---------7----------9-----------5-----|
E|--------------5----------7-----------3-----|

guitar 1
e|-----------------------------------|
B|-----------------------------------|
G|-----------------------------------|
D|-----------------------------------|  x2
A|--10-9-7-5-10-10-10-9-7-5-5--------|
E|-----------------------------------|
 guitar 2
e|-----------------------------------|
B|-----------------------------------|
G|-----------------------------------|
D|---9----------7-------------5------| x2
A|---9----------7-------------5------|
E|---7----------5-------------3------|

Outro
e|---------------------------------------------------------|
B|---------------------------------------------------------|
G|----7-7-7-7-7-7------------------------------------------|
D|----7-7-7-7-7-7-7-7-7-7-7-7-5-5-5-5-5-5-5-5-5-5-5--------|  
A|----5-5-5-5-5-5-7-7-7-7-7-7-5-5-5-5-5-5-5-5-5-5-5--------|
E|----------------5-5-5-5-5-5-3-3-3-3-3-3-3-3-3-3-3--------|

e|-----------------------------------------------------------|
B|-----------------------------------------------------------|
G|----7-7-7-7-7-7--------------------------------------7-7---|
D|----7-7-7-7-7-7-7-7-7-7-7-7-5-5-5-5-5-5555555555555--7-7---|  
A|----5-5-5-5-5-5-7-7-7-7-7-7-5-5-5-5-5-5555555555555--5-5---|
E|----------------5-5-5-5-5-5-3-3-3-3-3-3333333333333--------|



Добавлено: 12.12.2015
Другие материалы по этой песне:
  • Аккорды и текст

Страница создана 07.05.2014
http://primanota.ru/stuck-in-your-radio/homies-unite-chords.htm
Привет, Гость.
Предлагаем пройти революционный курс по гитаре.
Подарок от PrimaNota.Ru, забирай!