PrimaNota.ru - самый крупный в мире бесплатный архив песенных текстов, аккордов, табулатур и нот


Stuck In The Sound - Lets Go - аккорды и текст, таба, видео

Регистрация Запомнить меня
Войти через:  Facebook Google Twitter Vk Yandex Mail.ru

Stuck In The Sound - Lets Go - аккорды и текст, таба, видео

Печатать
Просмотров: 2460
Lets Go
Stuck In The Sound
Intro
1st Guitar
--2-----2-----------0-------0-----  |
-----0-----0-----3-------3--------  |
----------------------------------  | x4
----------------------------------  |
----------------------------------  |
----------------------------------  |

2nd Guitar
Bm D Bm Em

1st Guitar
---------------------------------------------  |
---------------------------------------------  |
---------------------------------------------  | x2
---------------------------------------------  |
---------0--2--4--4/5---------------0--2--4--  |
--3---3------------------2---2---2-----------  |

2nd Guitar
G G F#m A

Verse
Bm                         D
    Here I am tied and bound
            Em           Bm
    Every night feeling low
                           D     Em                   
    Bad days come back whatever
            Bm
    In the sun I bathe, in everyday light
          D                  Em             Bm     
    You draft me down for a split second tomorrow
                          D   Em 
    What am I supposed to do
    Bm                        D
    I know you would make me happy
                     G
    Girl I found my way out
               D
    I found it at last now I'm sober
    G           D
    Wouhouwhou

    Let's go
    G    G    F#m    A
    Hey! (Whouhouwhou)
    Hey!
    Your cryin'
    How sweet the sound
Bm                       D
    Silence's on I attempt
              Em               Bm
    Bow and scrape, tope the line
                       D      Em
    Nev/er get back together
               Bm
    With the same old style rand down my life
           D              Em             Bm
    You drag and drop, attract me after all
                      D        Em
    Anyway I'm gone to/morrow
     Bm                        D
    I know you would make me happy
                    G
    Girl I found my way out
               D
    I found it at last now I'm sober
    Bm                       D
    I know it would make it concrete
    
    Now you're cryin'
    G
   (Whouhouwhou)
    How sweet a sound
    Let's go
    G    G    F#m    A 
    Hey!
    (Whouhouwhouwhou)
    Let's go
    Hey!
    Your cryin'
    How sweet a sound
    Hey!
    Let's go!
    We're back to back for hours
    We're weak and what they say
    'bout loving like we do
    We'll never give this up
    Your cryin'
    How sweet the sound
Outro
1st Guitar
--2-----2-----------0-------0-----  |
-----0-----0-----3-------3--------  |
----------------------------------  | x4
----------------------------------  |
----------------------------------  |
----------------------------------  |

2nd Guitar
Bm D Bm Em

1st Guitar
---------------------------------------------  |
---------------------------------------------  |
---------------------------------------------  | x2
---------------------------------------------  |
---------0--2--4--4/5---------------0--2--4--  |
--3---3------------------2---2---2-----------  |

2nd Guitar
G G F#m A
Добавлено: 30.10.2014
Другие материалы по этой песне:
  • Аккорды и текст

Страница создана 30.10.2014
http://primanota.ru/stuck-in-the-sound/lets-go-chords.htm
Привет, Гость.
Предлагаем пройти революционный курс по гитаре.
Подарок от PrimaNota.Ru, забирай!