PrimaNota.ru - самый крупный в мире бесплатный архив песенных текстов, аккордов, табулатур и нот


Stuart Davis - Nothing In Between - таба, видео

Регистрация Запомнить меня
Войти через:  Facebook Google Twitter Vk Yandex Mail.ru

Stuart Davis - Nothing In Between - таба, видео

Печатать
Просмотров: 142
Hi everybody!  This is my first time ever tabbing something out, so I hope it all goes well.
I figured this song out by watching the video from the dreamusher website.  Well, here it is.
It's played in a similar manner to "Universe Communion."
If you have any question or comments, email me at zyoumans@macalester.edu

"Nothing In Between" by Stuart Davis

Tuning in the video:  Db, Ab, Db, Gb, Ab, Db

However, I just tend to play the song in plain old DADGAD so I'll label the strings as DADGAD.

Here's the Lyrics:

Verse 1
There is nothing in between us when we sleep
Every night the bliss begins to leak
Nothing in between us when we laugh
It's something that our head will never grasp
It's seen, in between

Verse 2
There's nothing in between your joy and mine
It's all a lot of nectar on the vine
Joy is how my parents were entwined
there's nothing in between their lives and mine
They've seen, in...

Refrain
Nowhere to hide in the open reality
Love is so wide that there isn't a boundary
There's only one eye without any enemy
When, you've seen in between

Verse 3
There's nothing in between our skin and light
There's nothing in between the wind and kite
There's nothing in between our lips and grace
There's nothing in between the tongue and taste
We've seen, in...

(Refrain)

There's nothing in between you and me
There's nothing in between blue and sea
Nothing in between us and love
There's nothing in between wings and doves...doves

(Refrain)

There is nothing in between

Here's the guitar part.  Woohoo!
When it's written that all the open strings are to be played, that is actually the right
hand hitting the strings right next to the bridge of the guitar.  I find it easiest to get
a good tone on all the strings by using my middle and ring fingers to hit the strings.
Most of the times that you hit the strings with your right hand, you immediately follow
it by hammering and pulling off the notes with the left hand.  This will be
written as "h(fret number)p"
meaning hammer the fret then pull off.  Such as "h5p" means hammer and pulloff on the 5th fret.
I think it's easiest to hammer with your middle and ring fingers.  There are also times in the
song where you hammer notes with the right hand index finger.  These will be denoted with
an "R" before the fret number.  Such as "R5" means hammer the 5th fret with your 
right index finger.
Have fun with this one, its a great song!


D ----0----0---------------0-----0--------------|
A ---0----0-----0----0----0-----0-----0----0----|
G -12---11-----0----0---12----11-----0----0-----|
D -----------12---11---------------12---11------|
A ----------------------------------------------|
D ----------------------------------------------|

D ------0------0------0------0-----0-----0--0-----|
A ------------------------------------------0-----|
G ---11-----11-----11-----11-----9-----9----9-----|
D -9------9------9------9------7-----7------7-----|
A ------------------------------------------0-----|
D ------------------------------------------------|


  "There is nothing in between us when we sleep."
D -----0----0---------------0----0----------------|
A ----0----0-----0----0----0----0-----0----0------|
G --12---11-----0----0---12---11-----0----0-------|  Riff
D ------------12---11--------------12---11--------|    A
A ------------------------------------------------|
D ------------------------------------------------|


  "Every night the bliss begins to leak."
D -----0----0----0----0---0---0---0---0----------|
A -----------------------------------------------|
G ---11---11---11---11---9---9---9---9-----------|  Riff
D --9----9----9----9----7---7---7---7------------|   B
A -----------------------------------------------|
D -----------------------------------------------|


   "Nothing in between us when we laugh."
                  w/Riff A


   "It's something that our head will never grasp."
                     w/Riff B


  "It's seen...           in           be"
D -----0----0----0----0----0----0----0------|
A ----0----0----0----0----0----0----0-------|
G ---4----4----4----4----6----6----6--------|
D --2----2----2----2----4----4----4----4----|
A ------------------------------------------|
D ------------------------------------------|


  "tween"
D --0-h5p-0---------0------0-----------|
A --0-----0-h5p-h5p-0------0-----------|
G --0-----0---------0-h7p--0-h6p-h6p---| (Play twice) Riff
D --0-----0---------0------0-----------|                C
A --0-----0---------0------0-----------|
D --0-----0---------0------0-----------|


   "There's nothing in between your joy and mine."
                     w/Riff C


   "It's all a lot of nectar on the vine."
D -----------------------------------------------------------------------|
A -----------------------------------------------------------------------|
G -----h9p----h7p-h7p---h7p---h6p-h6p---h4p---h2p-h2p----h4p---h2p-h2p---| Riff
D -----------------------------------------------------------------------|   D
A --R9-----R9---------R7----R7--------R5----R5--------R5-----R5----------|
D --R9-----R9---------R7----R7--------R5----R5--------R5-----R5----------|


   "Joy is how my parents were entwined."
                 w/Riff C


   "And there's nothing in between their lives and mine."
                       w/Riff D


 "They've seen...    in"
D ----0---0---0---0----0----0----0-------------------------------------| Here, just pluck
A --------------------0----0----0--------------------------------------| the 4th fret on the
G ---4---4---4---4---6----6----6----(6)p-0-- middle D string-----------|         Riff
D --2---2---2---2---4----4----4----4---p-0-- and pull off both---------|        E
A ---------------------------------------------------------------------| the 4 from the D
D ---------------------------------------------------------------------| and the 6 from the G.


   "Nowhere to hide in the open reality."
D ----h5p---h7p-h7p---h5p---h4p-h4p-----|
A --------------------------------------|
G ----h5p---h7p-h7p---h5p---h4p-h4p-----|   Riff
D --------------------------------------|    F
A --R5----R5--------R5----R5------------|
D --R5----R5--------R5----R5------------|


   "Love is so wide that there isn't a boundary."
                    w/Riff F


D --0-----0---------0-----0---------0-----0---------0-----0----------|
A --0-h4p-0-h7p-h7p-0-h4p-0-h2p-h2p-0-h4p-0-h7/9\7p-0-h4p-0-h2p-h2p--|
G --0-----0---------0-----0---------0-----0---------0-----0----------|   Riff
D --0-h4p-0-h7p-h7p-0-h4p-0-h2p-h2p-0-h4p-0-h7/9\7p-0-h4p-0-h2p-h2p--|    G
A --0-----0---------0-----0---------0-----0---------0-----0----------|
D --0-----0---------0-----0---------0-----0---------0-----0----------|


   "There's only one eye without any enemy."
                  w/Riff F


   "When,                                        you've
D ----------h5p-h5p---h7p---h7h8p7p0---------------------|
A ----h5p-------------------------------h7p---h7h8p7p0---|
G ----------h5p-h5p--------------------------------------|   Riff
D ----h5p------------------------------------------------|    H
A --R3----R3--------R8----R8---------R7-----R7-----------|
D --R3----R3--------R8----R8---------R7-----R7-----------|

    seen                 in        between.”
D ----h7p---h7h8p7p0---------------------0---|
A ---------------------h7p--h7h8p7p0---------|
G -------------------------------------------|  Riff
D -------------------------------------------|   H    (continued)
A --R8----R8---------R7----R7---------R0-----|
D --R8----R8---------R7----R7---------R0-----|


   Riff C


   “There's nothing in between our skin and light.”
                     w/Riff C

   “There's nothing in between the wind and kite.”
                     w/Riff D

   “There's nothing in between our lips and grace.”
                      w/Riff C

   “There's nothing in between the tongue and taste.”
                       w/Riff D

   “We've seen, in...”
        w/Riff E

   (Refrain) with these riffs:  Riff F(x2), Riff G, Riff F, Riff H


D -----------------|
A ----------<12>---|
G ------<12>-------| (Played 8 times)  Riff
D --<12>-----------|                    I
A -----------------|
D -----------------|


   “There's nothing in between you and me.”
                 w/Riff I

   “There's nothing in between blue and sea.”
                 w/Riff B

   ”Nothing in between us and love.”
              w/Riff I

   “There's nothing in between wings…”
               w/Riff B

  “And doves             doves.”
D -----0----0----0----0----0----0----0-----------|
A ----0----0----0----0----0----0----0------------|
G ---4----4----4----4----6----6----6----(6)p-0---|
D --2----2----2----2----4----4----4----4---p-0---|
A -----------------------------------------------|
D -----------------------------------------------|


   (Refrain) with these riffs:  Riff F (x2), Riff G, Riff F, Riff H


D ----0----0---------------0----0-------------|
A ---0----0-----0----0----0----0-----0----0---|
G -12---11-----0----0---12---11-----0----0----|
D -----------12---11--------------12---11-----|
A --------------------------------------------|
D --------------------------------------------|


  “There is nothing in between.”
D ----0----0---------------0----0----------------0---|
A ---0----0-----0----0----0----0----0----0------0----|
G -12---11-----0----0---12---11----0----0------0-----|
D -----------12---11-------------12---11------0------|
A -------------------------------------------0-------|
D ------------------------------------------0--------|
Добавлено: 09.03.2012
Другие материалы по этой песне:
  • Аккорды и текст

Страница создана 09.03.2012
http://primanota.ru/stuart-davis/nothing-in-between-chords.htm
Привет, Гость.
Предлагаем пройти революционный курс по гитаре.
Подарок от PrimaNota.Ru, забирай!