PrimaNota.ru - самый крупный в мире бесплатный архив песенных текстов, аккордов, табулатур и нот


Stuart Chatwood - Rooftop Engagement - бас-таба, видео

Регистрация Запомнить меня
Войти через:  Facebook Google Twitter Vk Yandex Mail.ru

Stuart Chatwood - Rooftop Engagement - бас-таба, видео

Печатать
Просмотров: 63
Авторы музыки: Stuart Chatwood

-------------------------------------------------------------------------------
                             Rooftop Engagement - Stuart Chatwood
-------------------------------------------------------------------------------
Tabbed by: Andu Needle
E-mail: sulfur_in_my_lungs@yahoo.com

Intro and Verse 1:

G|------------------------------------------------------|
D|------------------------------------------------------|
A|------------------------------------------------------|
D|-0000-100-100-10141-----------------------------------|(x16)

First solo:

G|------------------------------------------------------|
D|------------------------------------------------------|
A|-11111111-44444444-00000000-00000000------------------|
D|------------------------------------------------------|(x2)

Break:

G|------------------------------------------------------|
D|------------------------------------------------------|
A|------------------------------------------------------|
D|-000---000---000---000--------------------------------|

Verse 2:

G|------------------------------------------------------|
D|------------------------------------------------------|
A|------------------------------------------------------|
D|-0~-01-01-01014---------------------------------------|(x8)

Variation between Verse 2 and Bridge:

G|------------------------------------------------------|
D|------------------------------------------------------|
A|------------------------------------------------------|
D|-55555555---------------------------------------------|(x8)

G|------------------------------------------------------|
D|------------------------------------------------------|
A|------------------------------------------------------|
D|-66555555---------------------------------------------|(x8)

Bridge:

G|------------------------------------------------------|
D|------------------------------------------------------|
A|-6-5---65----6-5-----5--------------------------------|
D|-----0----0------0-0---0------------------------------|(x4)

Outro:

G|------------------------------------------------------|
D|------------------------------------------------------|
A|------------------------------------------------------|
D|-5-0-5-0-5-6------------------------------------------|
Добавлено: 11.08.2015
Другие материалы по этой песне:

Страница создана 16.11.2014
http://primanota.ru/stuart-chatwood/rooftop-engagement-chords.htm
Привет, Гость.
Предлагаем пройти революционный курс по гитаре.
Подарок от PrimaNota.Ru, забирай!