PrimaNota.ru - самый крупный в мире бесплатный архив песенных текстов, аккордов, табулатур и нот


Stuart Chatwood - At War With Kaileena Prince Of Persia 2 Ost - таба, видео

Регистрация Запомнить меня
Войти через:  Facebook Google Twitter Vk Yandex Mail.ru

Stuart Chatwood - At War With Kaileena Prince Of Persia 2 Ost - таба, видео

Печатать
Просмотров: 93
Prince of Persia 2 OST - At War With Kaileena - Acoustic Guitar tabs
Arranged and tabbed by FlashJockey

Video: https://youtu.be/CiRe19L7Urc

contact me for questions, requests or whatever
http://youtube.com/user/FlashJockey91


• Beat : hit the top of the guitar above the strings with the palm of your hand
▬ Snare : hit the strings with your thumb

e:--------------------------|
B:--------------------------|
G:--5--5--5--3--3-----------|
D:-----------------6--6--5--|
A:--------------------------| x4
D:--5--------5--------5-----|

____________________________________________________________________

e:--------------------------|
B:--------------------------|
G:--------------------------|
D:--5--------0--5n6n5-3--5--|
A:--------------------------| x3
D:--5-----5-----5-----5-----|


e:--------------------------|
B:--------------------------|
G:--------------------------|
D:--1--3--5--3--1n3n1-0n1n0-|
A:--------------------------|
D:--0-----0-----0-----0-----|

____________________________________________________________________x2

e:--------------------------|
B:--------------------------|
G:--------------------------|
D:-----0-----0--1--0--3n1n0-|
A:--0-----------------------| x4
D:--0-----0-----0-----0-----|

e:--------------------------|
B:--------------------------|
G:--------------------------|
D:-----0--3--5--6--5--3--5--|
A:--------------------------| x3
D:--5-----5-----5-----5-----|

e:--------------------------|
B:--------------------------|
G:--------------------------|
D:-----0--3--5--6--5--3--1--|
A:--------------------------|
D:--5-----5-----5-----5-----|

e:--------------------------|
B:--------------------------|
G:--------------------------|
D:-----0-----0--1--0--3n1n0-|
A:--0-----------------------| x4
D:--0-----0-----0-----0-----|

____________________________________________________________________

e:--------------------------|
B:--------------------------|
G:--------0-----2-----3-----|
D:--------------------------|
A:--------------------------| x4
D:--5--5--5--5--5--5--5--0--|

e:--------------------------|
B:--------1-----3-----4-----|
G:--------------------------|
D:--------------------------|
A:--3--3--3--3--3--3--3--3--| x2
D:--------------------------|

e:--------------------------|
B:--------3-----5-----6-----|
G:--------------------------|
D:--------------------------|
A:--5--5--5--5--5--5--5-----| x2
D:-----------------------0--|
____________________________________________________________________x2

e:--------------------------|
B:--------------------------| 2x with palm mute and no percussions
G:--------------------------| 2x with no palm mute and no percussions
D:-10-10-10--8--8--6--6--5--|
A:-10-10-10--8--8--6--6--5--| 4x with percussions
D:-10-10-10--8--8--6--6--5--|
    •     ▬     •     ▬

e:--------------------------|--------------------------|
B:--------------------------|--------------------------|
G:--------------------------|--------------------------|
D:--0--0--0--0--0--0--0--0--|--0--X--X--X--X--X--X--X--|
A:--0--0--0--0--0--0--0--0--|--0--X--X--X--X--X--X--X--|
D:--0--0--0--0--0--0--0--0--|--0--X--X--X--X--X--X--X--|
    •     ▬  ▬  ▬  ▬  ▬  ▬     ▬  ▬  ▬  ▬  ▬  ▬  ▬  ▬

e:--------------------------|--------------------------|
B:--------------------------|--------------------------|
G:--------------------------|--------------------------|
D:--0--0--0--0--0--0--0--0--|--0--0--0--1--0--0--1--0--|
A:--0--0--0--0--0--0--0--0--|--0--0--0--1--0--0--1--0--|
D:--0--0--0--0--0--0--0--0--|--0--0--0--1--0--0--1--0--|
    ▬  ▬  ▬  ▬  ▬  ▬  ▬  ▬     ▬  ▬  ▬  ▬  ▬  ▬  ▬  ▬

e:--------------------------|--------------------------|
B:--------------------------|--------------------------|
G:--------------------------|--------------------------|
D:--0--0--0--0--0--0--0--0--|--0--0--0--1--0--0--1--0--|
A:--0--0--0--0--0--0--0--0--|--0--0--0--1--0--0--1--0--|
D:--0--0--0--0--0--0--0--0--|--0--0--0--1--0--0--1--0--|
    •     ▬     •     ▬        •     ▬     •     ▬

e:--------------------------|--------------------------|
B:--------------------------|--------------------------|
G:--------------------------|--------------------------|
D:--0--0--0--0--0--0--0--0--|--1--0--0--1--0--0--1--0--|
A:--0--0--0--0--0--0--0--0--|--1--0--0--1--0--0--1--0--|
D:--0--0--0--0--0--0--0--0--|--1--0--0--1--0--0--1--0--|
    •     ▬     •     ▬        •     ▬     •     ▬
____________________________________________________________________

e:--------------------------|--------------------------|
B:--------------------------|--------------------------|
G:--------------------------|--------------------------|
D:--5--5--5--5--5--5--5--5--|--4--4--4--4--4--4--4--4--|
A:--5--5--5--5--5--5--5--5--|--4--4--4--4--4--4--4--4--|
D:--5--5--5--5--5--5--5--5--|--4--4--4--4--4--4--4--4--|
    •     ▬     •     ▬        •     ▬     •     ▬

e:--------------------------|--------------------------|
B:--------------------------|--------------------------|
G:--------------------------|--------------------------|
D:5-5--5--5--5--5--5--5--5--|--4--4--4--4--0--0--0--0--|
A:5-5--5--5--5--5--5--5--5--|--4--4--4--4--0--0--0--0--|
D:5-5--5--5--5--5--5--5--5--|--4--4--4--4--0--0--0--0--|
    •     ▬     •     ▬        •     ▬     •     ▬

e:--------------------------|--------------------------|
B:--------------------------|--------------------------|
G:--------------------------|--------------------------|
D:0-1--1--1--1--1--1--1--1--|--0--0--0--0--0--0--0--0--|
A:0-1--1--1--1--1--1--1--1--|--0--0--0--0--0--0--0--0--|
D:0-1--1--1--1--1--1--1--1--|--0--0--0--0--0--0--0--0--|
    •     ▬     •     ▬        •     ▬     •     ▬

e:--------------------------|--------------------------|
B:--------------------------|--------------------------|
G:--------------------------|--------------------------|
D:0-1--1--1--1--1--1--1--1--|--4--4--4--1--0--0--0--0--|
A:0-1--1--1--1--1--1--1--1--|--0--0--0--0--0--0--0--0--|
D:0-1--1--1--1--1--1--1--1--|--0--0--0--0--0--0--0--0--|
    •     ▬     •     ▬        •     ▬     •     ▬
____________________________________________________________________

e:--------------------------|
B:--------------------------|
G:--------------------------|
D:--5--0--1--3--6--5--3--5--|
A:--5--0--1--3--6--5--3--5--| x4
D:--5--0--1--3--6--5--3--5--|
    •     ▬     •     ▬

e:--------------------------|
B:--------------------------|
G:--------------------------|
D:5-5--0--1--3--6--5--3--5--|
A:5-5--0--1--3--6--5--3--5--| x3
D:5-5--0--1--3--6--5--3--5--|
    •     ▬     •     ▬  ▬

e:--------------------------|
B:--------------------------|
G:--------------------------|
D:5-5--0--1--3--6--5--3--1--|
A:5-5--0--1--3--6--5--3--1--|
D:5-5--0--1--3--6--5--3--1--|
    •     ▬     •     ▬

e:--------------------------|
B:--------------------------|
G:--------------------------|
D:--5--5--5--3--3--1--1--0--|
A:--------------------------| x3
D:--------------------------|
Добавлено: 05.12.2015
Другие материалы по этой песне:
  • Аккорды и текст

Страница создана 05.12.2015
http://primanota.ru/stuart-chatwood/at-war-with-kaileena-prince-of-persia-2-ost-chords.htm
Привет, Гость.
Предлагаем пройти революционный курс по гитаре.
Подарок от PrimaNota.Ru, забирай!