PrimaNota.ru - самый крупный в мире бесплатный архив песенных текстов, аккордов, табулатур и нот


Stu Hamm - Flow My Tears - бас-таба, видео

Регистрация Запомнить меня
Войти через:  Facebook Google Twitter Vk Yandex Mail.ru

Stu Hamm - Flow My Tears - бас-таба, видео

Печатать
Просмотров: 228
Новый альбом группы 'Черный Кузнец' по культовому сериалу 'Сверхъестественное'!
-------------------------------------------------------------------------------
			   Flow My Tears - Stu Hamm
-------------------------------------------------------------------------------

Tabbed By : Liny
e-mail: Oispurple@yahoo.com

Tuning:EADG


                t  t                  t  t                   t      t
G|-------17--|-19-----|-------11--|--14-----|---------11--|-19\16--16~------|
D|----13-----|--------|----9------|---------|------9------|-19\16--16~------|
A|-15--------|----19--|-11--------|-----14--|----7--------|-----------------|
E|-----------|--------|-----------|---------|--0----------|-----------------|


                t  t                  t  t                   t  t    t
G|-------17--|-19-----|-------11--|--14-----|---------11--|----------19\16--|
D|----13-----|--------|----9------|---------|------9------|-17--------------|
A|-15--------|----19--|-11--------|-----14--|----7--------|----17/19--------|
E|-----------|--------|-----------|---------|--0----------|-----------------|


    t  t      t   t     t       slap
G|---------------14--|------------------------------------------------------|
D|-14--------12------|------------------------------------------------------|
A|----15\14----------|------------------------------------------------------|
E|-------------------|--7/8\7---0-------------------------------------------|
                      *(Right Hand t)
Добавлено: 24.04.2012
Другие материалы по этой песне:
  • Аккорды и текст

Страница создана 15.03.2012
http://primanota.ru/stu-hamm/flow-my-tears-chords.htm
Привет, Гость.
Предлагаем пройти революционный курс по гитаре.
Подарок от PrimaNota.Ru, забирай!