PrimaNota.ru - самый крупный в мире бесплатный архив песенных текстов, аккордов, табулатур и нот


Stu Hamm - Call Of The Wild - бас-таба, видео

Регистрация Запомнить меня
Войти через:  Facebook Google Twitter Vk Yandex Mail.ru

Stu Hamm - Call Of The Wild - бас-таба, видео

Печатать
Просмотров: 122
Новый альбом группы 'Черный Кузнец' по культовому сериалу 'Сверхъестественное'!
Call Of The Wild

Tabbed by: Brad Chamberlain (chamberlain.brad@yahoo.com)

Stu's Kings Of Sleep album in my opinion was his best album.

Intro

G|---------------------------------------------------4---------------|
D|-2-----------------2h4-2------2------------2h4-4/6----2------------|
A|--------------2h4---------4-2-0----0--0----------------------------|
E|-4----4--4--------------------------------------------4----4--4----|

G|---------4--6-4-7---------------------------------------------------|
D|-2h4-4/6------------------5----------5----------5----------5--------|
A|--------------------------------------------------------------------|
E|-------------------3--3-3---3-3--3-3---3-3--3-3---3-3--3-3---3-/12\-|

Verse

G|------------------------------------------------------------------------|
D|------0---0-----0---0------0---0-----0----------0---0-----0---0-----0---|
A|-4/5----5----5----5---4/5----5---5/8---7-4-4/5----5----5----5-----5---5-|
E|------------------------------------------------------------------------|

G|----------|
D|----0-----|
A|-3----2-0-|
E|----------|

Chorus

G|-------------------2--------------------9---8--------------------2---|
D|-----4---4---4-------4------4---4---4--------------4---4---4-------4-|
A|--------------------------------------------7------------------------|
E|-0h2---2---2---0h4------0h4---4---4---4---X----0h2---2---2---0h4-----|

G|----------------------|
D|-----4---4---4p2------|
A|-----------------/4-2-|
E|-0h4---4---4----------|

I will post the bass solo later. Sorry guys!
Добавлено: 08.03.2012
Другие материалы по этой песне:
  • Аккорды и текст

Страница создана 08.03.2012
http://primanota.ru/stu-hamm/call-of-the-wild-chords.htm
Привет, Гость.
Предлагаем пройти революционный курс по гитаре.
Подарок от PrimaNota.Ru, забирай!