PrimaNota.ru - самый крупный в мире бесплатный архив песенных текстов, аккордов, табулатур и нот


Sttellla - Torremolinos - аккорды и текст, видео

Регистрация Запомнить меня
Войти через:  Facebook Google Twitter Vk Yandex Mail.ru

Sttellla - Torremolinos - аккорды и текст, видео

Печатать
Просмотров: 62
Torremolinos
Sttellla
Song: Torremolinos
Band: Sttellla
Album: Manneken pis not war / Faisez la mouche, pas la guêpe
Year: 1992
Tabber: beranger80@hotmail.com



Intro (0:00)

e-------------------------------------|-------------------------------|
b-------------------------------------|-------------------------------|
g-----------------3-5-7-7----5-3------|-------------------------------|
d--5-3-5----3-5-6----------------6-5--|--3-5-3---3--------------------|
a-------------------------------------|--------6-----6---5---2h3---2--|
e-------------------------------------|-------------------------------|

e------------------------------------------------------------------------------|
b------------------------------------------------------------------------------|
g------------------------------------------------------------------------------|
d------------------------------------------------------------------------------|
a--2-3-5-10-5-3-2-3-5-10-5-3-2-3-5-10-5-3--2-3-5-10-5-3-2-3-5-10-5-3-2-3-5-10--|
e---------t------------t------------t-------------t------------t------------t--|



Intro (0:23)

C Eb F G
C Eb F G



Verse (0:35)

C                       Eb
Il y a une ville à la Costa Del Sol
  F                         G
Où il y a plus de Belges que d'Espagnols
C                   Eb
Où il y a plus de Leonidas
   F             G
Et de Bata que de Gambas



Chorus (0:46)

         C                Eb
On ira tous tous tous à Torremolinos
  F                 G
Tous tous tous à Torre-molinos
C                   Eb
Tous tous tous à Torremolinos
  F                 G
Tous tous tous à Torre-molinos



Verse (0:58)

C                          Eb
Même quand il pleut c'est génial
   F                    G
On sait poster des cartes postales
C                          Eb
Ou boire un godet à l'Amicale
   F                    G
Des amis du camping municipal



Bridge (1:11)

F               G
Avec Sunair, c'est super
F               G
Avec Airtour, c'est l'aller et le retour
F                  G
Avec Neckermann, c'est géniann
F                           G
Avec Nouvelles Frontières, c'est pas cher



Chorus (1:23)

         C                Eb
On ira tous tous tous à Torremolinos
  F                 G
Tous tous tous à Torre-molinos
C                   Eb
Tous tous tous à Torremolinos
  F                 G
Tous tous tous à Torre-molinos




Bridge (1:34)

C Eb F G 
C Eb F G



Verse (1:46)

C                          Eb
Pour moi Torremolinos c'est le paradis
   F                    G
Je crois bien que je vais mourir ici
C                          Eb
Et quand je serai mort je veux qu'on m'enterre
   F                    G
A Torremolinos, son cimetière.



Chorus (1:57)

         C                Eb
On ira tous tous tous à Torremolinos
  F                 G
Tous tous tous à Torre-molinos
C                   Eb
Tous tous tous à Torremolinos
  F                 G
Tous tous tous à Torre-molinos




Chorus (2:10)

Tous tous tous à Torremolinos
Tous tous tous à Torre-molinos
C
Tous tous tous à Torremolinos
  F                 G
Tous tous tous à Torre-molinos




Chorus (2:22)

         C                Eb
On ira tous tous tous à Torremolinos
  F                 G
Tous tous tous à Torre-molinos
C                   Eb
Tous tous tous à Torremolinos
  F                 G
Tous tous tous à Torre-molinos
Добавлено: 26.07.2015
Другие материалы по этой песне:
  • Аккорды и текст

Страница создана 26.07.2015
http://primanota.ru/sttellla/torremolinos-chords.htm
Привет, Гость.
Предлагаем пройти революционный курс по гитаре.
Подарок от PrimaNota.Ru, забирай!