PrimaNota.ru - самый крупный в мире бесплатный архив песенных текстов, аккордов, табулатур и нот


Sttellla - Annees 80 - таба, видео

Регистрация Запомнить меня
Войти через:  Facebook Google Twitter Vk Yandex Mail.ru

Sttellla - Annees 80 - таба, видео

Печатать
Просмотров: 56
Song: Années 80
Band: Sttellla
Album: Il faut tourner l'Apache...
Year: 1998
Tabber: beranger80@hotmail.com



Intro (0:03)

   C
e---------------------------------|
b-----5---6-5------5---6--5-------|
g--5----5-----5--5---5------5-----|
d---------------------------------|
a---------------------------------|
e---------------------------------|

   F
e---------------------------------|
b-----5---6-5------5---6--5-------|
g--5----5-----5--5---5------5-----|
d---------------------------------|
a---------------------------------|
e---------------------------------|

   G
e---------------------------------|
b-----5---6-5------5---6--5-------|
g--5----5-----5--5---5------5-----|
d---------------------------------|
a---------------------------------|
e---------------------------------|

   C
e---------------------------------|
b-----5---6-5------5---6--5-------|
g--5----5-----5--5---5------5-----|
d---------------------------------|
a---------------------------------|
e---------------------------------|

Play the intro a second time



Verse (0:31)

C                    F
On était les tout nouveaux maîtres
      G                  F
D'un tout nouveau monde de plastique
C                 F
On était sur notre planète
    G            F
Où tout était électronique

0:45
C               F
On rêvait de vidéoclips
          G                       F
Avec des chevals blancs et des colombes en plastique
     C                F
On faisait de la musique bizarre
              G                  F
Du genre manœuvres orchestrales dans le noir



Chorus (0:59)

D          G         A
A-A-A-A-A-A-A-A-A-A-A-A-A
G
Années quatre-vingt
D          G         A
A-A-A-A-A-A-A-A-A-A-A-A-A 
G
Années septante-dix



Bridge (1:13)

   C
e---------------------------------|
b-----5---6-5------5---6--5-------|
g--5----5-----5--5---5------5-----|
d---------------------------------|
a---------------------------------|
e---------------------------------|

   F
e---------------------------------|
b-----5---6-5------5---6--5-------|
g--5----5-----5--5---5------5-----|
d---------------------------------|
a---------------------------------|
e---------------------------------|

   G
e---------------------------------|
b-----5---6-5------5---6--5-------|
g--5----5-----5--5---5------5-----|
d---------------------------------|
a---------------------------------|
e---------------------------------|

   C
e---------------------------------|
b-----5---6-5------5---6--5-------|
g--5----5-----5--5---5------5-----|
d---------------------------------|
a---------------------------------|
e---------------------------------|



Verse (1:27)

C                      F
On appuyait sur tous les boutons
      G             F
On fabriquait des nouveaux sons
        C         F
On répétait dans un sous-sol
       G                  F
C'est vrai qu'on jouait comme des caves



Verse (1:41)

C                 F
On répétait dans un sous-sol
      G                  F
A chaque c'était pire que grave
       C                  F
On se prenait pour des requins de studio
      G                   F
Mais on était que des cinglés de bistro



Chorus (1:56)

D          G         A
A-A-A-A-A-A-A-A-A-A-A-A-A
G
Années quatre-vingt
D          G         A
A-A-A-A-A-A-A-A-A-A-A-A-A 
G
Années septante-dix



Bridge (2:13)

   C
e---------------------------------|
b-----5---6-5------5---6--5-------|
g--5----5-----5--5---5------5-----|
d---------------------------------|
a---------------------------------|
e---------------------------------|

   F
e---------------------------------|
b-----5---6-5------5---6--5-------|
g--5----5-----5--5---5------5-----|
d---------------------------------|
a---------------------------------|
e---------------------------------|

   G
e---------------------------------|
b-----5---6-5------5---6--5-------|
g--5----5-----5--5---5------5-----|
d---------------------------------|
a---------------------------------|
e---------------------------------|

   C
e---------------------------------|
b-----5---6-5------5---6--5-------|
g--5----5-----5--5---5------5-----|
d---------------------------------|
a---------------------------------|
e---------------------------------|



Solo (2:27)

   D               G              A               D
e--------------|--------------|----------------|--------------|
b------10-8-7--|------10-8-7--|--10----10-8-7--|------10-8-7--|
g--7-----------|--7-----------|----------------|--7-----------|
d--------------|--------------|----------------|--------------|
a--------------|--------------|----------------|--------------|
e--------------|--------------|----------------|--------------|



Verse (2:41)

D                      G
Dans notre groupe, y'avait Léon
     A                             G
Qui buvait son vin rouge en jouant du synthé ... million
D                      G
Il y avait aussi Pierre-Henri
     A                             G
Qui lisait le Petit Prince en jouant du synthé ... Xupéry
D                      G
Y'avait bien sûr Napoléon
     A                             G
Qui se prenait pour Verlaine et qui jouait du synthé ... lène
D                      G
Et puis y'avait Lisa la blonde
     A                             G
Qui nous amenait à boire en disant "Hey, synthé tout le monde!"



Chorus (3:09)

Em          A         B
A-A-A-A-A-A-A-A-A-A-A-A-A
A
Années quatre-vingt
Em          A         B
A-A-A-A-A-A-A-A-A-A-A-A-A 
A
Années septante-dix



Outro (3:23)

   D
e---------------------------------|
b-----7---8-7------7---8--7-------|
g--7----7-----7--7---7------7-----|
d---------------------------------|
a---------------------------------|
e---------------------------------|

   G
e---------------------------------|
b-----7---8-7------7---8--7-------|
g--7----7-----7--7---7------7-----|
d---------------------------------|
a---------------------------------|
e---------------------------------|

   D
e---------------------------------|
b-----7---8-7------7---8--7-------|
g--7----7-----7--7---7------7-----|
d---------------------------------|
a---------------------------------|
e---------------------------------|

   D
e---------------------------------|
b-----7---8-7------7---8--7-------|
g--7----7-----7--7---7------7-----|
d---------------------------------|
a---------------------------------|
e---------------------------------|
Добавлено: 02.08.2015
Вам также может быть интересно:
Другие материалы по этой песне:
  • Аккорды и текст

Страница создана 02.08.2015
http://primanota.ru/sttellla/annees-80-chords.htm
Привет, Гость.
Предлагаем пройти революционный курс по гитаре.
Подарок от PrimaNota.Ru, забирай!