PrimaNota.ru - самый крупный в мире бесплатный архив песенных текстов, аккордов, табулатур и нот


Stryper - Winter Wonderland - таба, бас-таба, видео

Регистрация Запомнить меня
Войти через:  Facebook Google Twitter Vk Yandex Mail.ru

Stryper - Winter Wonderland - таба, бас-таба, видео

Печатать
Просмотров: 133
Уроки эстрадного вокала в Санкт-Петербурге
-------------------------------------------------------------------------------
                             WINTER WONDERLAND - Stryper
-------------------------------------------------------------------------------
Tabbed by: Isaias Garcia (TexasFury)

Tuning: 1/2 step down


Rhythm - Oz


      W                   W                   W                   W                 
D#||-------------------|-------------------|-------------------|-------------------|
A#||-------------------|-------------------|-------------------|-------------------|
F#||-------------------|-------------------|-------------------|-------------------|
C#||-------------------|-------------------|-------------------|-------------------|
G#||-------------------|-------------------|-------------------|-------------------|
D#||-------------------|-------------------|-------------------|-------------------|


  W                   W                   W                   W                   W                 
-------------------|-------------------|-------------------|-------------------|-------------------|
-------------------|-------------------|-------------------|-------------------|-------------------|
-------------------|-------------------|-------------------|-------------------|-------------------|
-------------------|-------------------|-------------------|-------------------|-------------------|
-------------------|-------------------|-------------------|-------------------|-------------------|
-------------------|-------------------|-------------------|-------------------|-------------------|


  W                   W                   W                   W                   W                 
-------------------|-------------------|-------------------|-------------------|-------------------|
-------------------|-------------------|-------------------|-------------------|-------------------|
-------------------|-------------------|-------------------|-------------------|-------------------|
-------------------|-------------------|-------------------|-------------------|-------------------|
-------------------|-------------------|-------------------|-------------------|-------------------|
-------------------|-------------------|-------------------|-------------------|-------------------|


  W                   W                   W                   W                   W                 
-------------------|-------------------|-------------------|-------------------|-------------------|
-------------------|-------------------|-------------------|-------------------|-------------------|
-------------------|-------------------|-------------------|-------------------|-------------------|
-------------------|-------------------|-------------------|-------------------|-------------------|
-------------------|-------------------|-------------------|-------------------|-------------------|
-------------------|-------------------|-------------------|-------------------|-------------------|


                                                               pick scrape          
  W                   W                   W                    H.            E  E   
-------------------|-------------------|-------------------|-----------------------|
-------------------|-------------------|-------------------|-----------------------|
-------------------|-------------------|-------------------|-----------------------|
-------------------|-------------------|-------------------|---x\---------------6--|
-------------------|-------------------|-------------------|---x\---------------6--|
-------------------|-------------------|-------------------|--------------------4--|


       PM PM PM PM PM PM PM    PM PM PM PM PM PM PM PM            PM PM PM PM PM PM PM  
             |--3--|                       |--3--|                      |--3--|         
  Q    E  E  E  E  E  E  E     E  E  E  E  E  E  E  E  E     Q    E  E  E  E  E  E  E   
----------------------------|-----------------------------|----------------------------|
----------------------------|-----------------------------|----------------------------|
----------------------------|-----------------------------|----------------------------|
--7-------------------------|--------------------------6--|--7-------------------------|
--7-------------------------|--------------------------6--|--7-------------------------|
--5----5--5--5--5--5--5--5--|--5--5--5--5--5--5--5--5--4--|--5----5--5--5--5--5--5--5--|


  PM PM PM PM PM PM PM PM            PM PM PM PM PM PM PM    PM PM PM PM PM PM PM PM     
              |--3--|                      |--3--|                       |--3--|         
  E  E  E  E  E  E  E  E  E     Q    E  E  E  E  E  E  E     E  E  E  E  E  E  E  E  E   
-----------------------------|----------------------------|-----------------------------|
-----------------------------|----------------------------|-----------------------------|
-----------------------------|----------------------------|--------------------------8--|
--------------------------6--|--7-------------------------|--------------------------8--|
--------------------------6--|--7-------------------------|--------------------------6--|
--5--5--5--5--5--5--5--5--4--|--5----5--5--5--5--5--5--5--|--5--5--5--5--5--5--5--5-----|


       PM PM PM PM PM PM PM    PM PM PM PM PM PM PM PM            PM PM PM PM PM PM     
             |--3--|                       |--3--|                      |--3--|         
  Q    E  E  E  E  E  E  E     E  E  E  E  E  E  E  E  E     Q    E  E  E  E  E  E  E   
----------------------------|-----------------------------|----------------------------|
----------------------------|-----------------------------|----------------------------|
--9-------------------------|--------------------------8--|--9----------------------8--|
--9-------------------------|--------------------------8--|--9----------------------8--|
--7-------------------------|--------------------------6--|--7----------------------6--|
-------0--0--0--0--0--0--0--|--0--0--0--0--0--0--0--0-----|-------0--0--0--0--0--0-----|


       PM PM PM PM PM PM       PM PM                             PM                       
             |--3--|                            |---3---|                     |---3---|   
  Q    E  E  E  E  E  E  E     E  E  E  E  Q    E   E   E     E  E  Q    Q    E   E   E   
----------------------------|------------------------------|-----------------------------|
----------------------------|------------------------------|-----------------------------|
--9-------------------------|------------------------------|-----------------------------|
--9-------------------------|------------------------------|-----------------------------|
--7-------------------------|--------7--7--5----5h--7p--5--|--4----------4----4h--5h--7--|
-------0--0--0--0--0--0--0--|--5--5------------------------|-----5--5--------------------|


       PM PM PM PM PM PM PM    PM PM PM PM PM PM PM PM            PM PM PM PM PM PM PM  
             |--3--|                       |--3--|                      |--3--|         
  Q    E  E  E  E  E  E  E     E  E  E  E  E  E  E  E  E     Q    E  E  E  E  E  E  E   
----------------------------|-----------------------------|----------------------------|
----------------------------|-----------------------------|----------------------------|
----------------------------|--------------------------8--|--9-------------------------|
--7-------------------------|--------------------------8--|--9-------------------------|
--7-------------------------|--------------------------6--|--7-------------------------|
--5----5--5--5--5--5--5--5--|--5--5--5--5--5--5--5--5-----|-------0--0--0--0--0--0--0--|


  PM PM PM PM PM PM PM PM            PM PM PM PM PM PM            PM PM PM PM PM PM PM  
              |--3--|                      |--3--|                      |--3--|         
  E  E  E  E  E  E  E  E  E     Q    E  E  E  E  E  E  E     Q    E  E  E  E  E  E  E   
-----------------------------|----------------------------|----------------------------|
-----------------------------|----------------------------|----------------------------|
--------------------------8--|--9----------------------8--|--9-------------------------|
--------------------------8--|--9----------------------8--|--9-------------------------|
--------------------------6--|--7----------------------6--|--7-------------------------|
--0--0--0--0--0--0--0--0-----|-------0--0--0--0--0--0-----|-------0--0--0--0--0--0--0--|


  PM PM                             PM                         PM PM                  
                   |---3---|                     |---3---|                            
  E  E  E  E  Q    E   E   E     E  E  Q    Q    E   E   E     E  E  Q    E  E  Q     
------------------------------|-----------------------------|-------------3--3--L----|
------------------------------|-----------------------------|-------------3--3--L----|
------------------------------|-----------------------------|--7--7--7----0--0--L----|
------------------------------|-----------------------------|--7--7--7----0--0--L----|
--------7--7--5----5h--7p--5--|--4----------4----4h--5h--7--|--5--5--5---------------|
--5--5------------------------|-----5--5--------------------|-------------3--3--L----|


  PM PM PM PM PM PM PM PM PM PM    PM PM PM                 PM PM                 
        |--3--|        |--3--|                                                    
  E  E  E  E  E  E  E  E  E  E     E  E  Q    E  E  Q       E  E  Q    Q    Q     
--------------------------------|------------------------|-----------------------|
--------------------------------|------------------------|-----------------------|
--------------------------------|--7--7--7---------------|--7--7--7----7----8----|
--------------------------------|--7--7--7----5--5--5----|--7--7--7----7----8----|
--5--5--5--5--5--5--5--5--5--5--|--5--5--5----5--5--5----|--5--5--5----5----6----|
--------------------------------|-------------3--3--3----|-----------------------|


  PM PM      PM PM PM         PM PM PM   PM PM PM      PM PM PM                                     
             |--3--|                                                                                
  E  E  Q    E  E  E  Q       E  E  Q    E  E  Q       E  E  Q    E  E  Q       Q    Q    H         
---------------------------|------------------------|------------------------|---------------------|
---------------------------|------------------------|------------------------|---------------------|
--9--9--9------------------|--9--9--9----9--9--9----|--9--9--9---------------|--9----8----7--------|
--9--9--9----7--7--7--7----|--9--9--9----9--9--9----|--9--9--9---------------|--9----8----7--------|
--7--7--7----7--7--7--7----|--7--7--7----7--7--7----|--7--7--7----6--6--6----|--7----6----5--------|
-------------5--5--5--5----|------------------------|-------------7--7--7----|---------------------|


       PM PM PM PM PM PM PM    PM PM PM PM PM PM PM PM            PM PM PM PM PM PM PM  
             |--3--|                       |--3--|                      |--3--|         
  Q    E  E  E  E  E  E  E     E  E  E  E  E  E  E  E  E     Q    E  E  E  E  E  E  E   
----------------------------|-----------------------------|----------------------------|
----------------------------|-----------------------------|----------------------------|
----------------------------|--------------------------8--|--9-------------------------|
--7-------------------------|--------------------------8--|--9-------------------------|
--7-------------------------|--------------------------6--|--7-------------------------|
--5----5--5--5--5--5--5--5--|--5--5--5--5--5--5--5--5-----|-------0--0--0--0--0--0--0--|


  PM PM PM PM PM PM PM PM            PM PM PM PM PM PM            PM PM PM PM PM PM PM  
              |--3--|                      |--3--|                      |--3--|         
  E  E  E  E  E  E  E  E  E     Q    E  E  E  E  E  E  E     Q    E  E  E  E  E  E  E   
-----------------------------|----------------------------|----------------------------|
-----------------------------|----------------------------|----------------------------|
--------------------------8--|--9----------------------8--|--9-------------------------|
--------------------------8--|--9----------------------8--|--9-------------------------|
--------------------------6--|--7----------------------6--|--7-------------------------|
--0--0--0--0--0--0--0--0-----|-------0--0--0--0--0--0-----|-------0--0--0--0--0--0--0--|


  PM PM                             PM                       PM PM PM PM PM PM PM  
                   |---3---|                                       |--3--|         
  E  E  E  E  Q    E   E   E     E  E  Q    H           Q    E  E  E  E  E  E  E   
------------------------------|----------------------|----------------------------|
------------------------------|----------------------|----------------------------|
------------------------------|----------------------|----------------------------|
------------------------------|----------------------|--7-------------------------|
--------7--7--5----5h--7p--5--|--4-------------------|--7-------------------------|
--5--5------------------------|-----5--5----5--------|--5----5--5--5--5--5--5--5--|


  PM PM PM PM PM PM PM            PM PM PM PM PM PM    PM PM PM PM PM PM PM     
  E  E  E  E  E  E  E  E     Q    E  E  E  E  E  E     E  E  E  E  E  E  E  E   
--------------------------|-------------------------|--------------------------|
--------------------------|-------------------------|--------------------------|
-----------------------8--|--9----------------------|-----------------------8--|
-----------------------8--|--9----------------------|-----------------------8--|
-----------------------6--|--7----------------------|-----------------------6--|
--5--5--5--5--5--5--5-----|-------0--0--0--0--0--0--|--0--0--0--0--0--0--0-----|


       PM PM PM PM PM PM    PM PM PM PM PM PM PM             PM PM PM PM PM PM                      
  Q    E  E  E  E  E  E     E  E  E  E  E  E  E  E     E  E  E  E  E  E  E  E     W                 
-------------------------|--------------------------|--------------------------|-------------------|
-------------------------|--------------------------|--------------------------|-------------------|
--9----------------------|-----------------------8--|--9--9--------------------|-------------------|
--9----------------------|-----------------------8--|--9--9--------------------|--7----------------|
--7----------------------|-----------------------6--|--7--7--------------------|--7----------------|
-------0--0--0--0--0--0--|--0--0--0--0--0--0--0-----|--------0--0--0--0--0--0--|--5----------------|


       PM PM PM PM PM PM    PM PM PM PM PM PM PM PM            PM    PM PM PM PM  
                                  |--3--|                                         
  Q    E  E  E  E  E  E     E  E  E  E  E  E  E  E  E     Q    E  E  E  E  E  E   
-------------------------|-----------------------------|-------------------------|
-------------------------|-----------------------------|-------------------------|
-------------------------|--------------------------8--|--9----------------------|
--7----------------------|--------------------------8--|--9----------------------|
--7----------------------|--------------------------6--|--7----------------------|
--5----5--5--5--5--5--5--|--5--5--5--5--5--5--5--5-----|-------0--0--0--0--0--0--|


  PM PM PM PM PM PM PM            PM PM PM PM PM            PM PM PM PM PM PM  
  E  E  E  E  E  E  E  E     Q    E  E  E  E  E  E     Q    E  E  E  E  E  E   
--------------------------|-------------------------|-------------------------|
--------------------------|-------------------------|-------------------------|
-----------------------8--|--9----------------------|----------------------8--|
-----------------------8--|--9----------------------|----------------------8--|
-----------------------6--|--7----------------------|----------------------6--|
--0--0--0--0--0--0--0-----|-------0--0--0--0--0--0--|--0----0--0--0--0--0-----|


       PM PM PM PM PM                            PM PM      PM PM PM         PM PM                
                                                            |--3--|                               
  Q    E  E  E  E  E  E     W                    E  E  Q    E  E  E  Q       E  E  Q    H         
-------------------------|--------------------|---------------------------|----------------------|
-------------------------|--------------------|---------------------------|----------------------|
--9----------------------|--------------------|--------7------------------|--------7----7--------|
--9----------------------|--7~----------------|--------7-------------5----|--------7----7--------|
--7----------------------|--7~----------------|--5--5--5-------------5----|--5--5--5----5--------|
-------0--0--0--0--0--0--|--5~----------------|-------------3--3--3--3----|----------------------|


  PM PM      PM PM PM         PM PM                   PM PM      PM PM PM       
             |--3--|                                             |--3--|        
  E  E  Q    E  E  E  Q       E  E  Q    Q    Q       E  E  Q    E  E  E  Q     
---------------------------|-----------------------|---------------------------|
---------------------------|-----------------------|---------------------------|
--------7------------------|--------7----7----8----|--9--9--9------------------|
--------7-------------5----|--------7----7----8----|--9--9--9----7--7--7--7----|
--5--5--5-------------5----|--5--5--5----5----6----|--7--7--7----7--7--7--7----|
-------------3--3--3--3----|-----------------------|-------------5--5--5--5----|


  PM PM PM               PM PM PM                                             PM PM PM PM PM PM PM  
                                                                                    |--3--|         
  E  E  Q    H           E  E  Q    E  E  Q       Q    Q    Q    Q       Q    E  E  E  E  E  E  E   
----------------------|------------------------|----------------------|----------------------------|
----------------------|------------------------|----------------------|----------------------------|
--9--9--9----9--------|--9--9--9---------------|--9----8----7---------|----------------------------|
--9--9--9----9--------|--9--9--9---------------|--9----8----7---------|--7-------------------------|
--7--7--7----7--------|--7--7--7----6--6--6----|--7----6----5----3----|--7-------------------------|
----------------------|-------------7--7--7----|----------------------|--5----5--5--5--5--5--5--5--|


  PM PM PM PM PM PM PM PM            PM PM PM PM PM PM PM    PM PM PM PM PM PM PM PM     
              |--3--|                      |--3--|                       |--3--|         
  E  E  E  E  E  E  E  E  E     Q    E  E  E  E  E  E  E     E  E  E  E  E  E  E  E  E   
-----------------------------|----------------------------|-----------------------------|
-----------------------------|----------------------------|-----------------------------|
--------------------------8--|--9-------------------------|--------------------------8--|
--------------------------8--|--9-------------------------|--------------------------8--|
--------------------------6--|--7-------------------------|--------------------------6--|
--5--5--5--5--5--5--5--5-----|-------0--0--0--0--0--0--0--|--0--0--0--0--0--0--0--0-----|


       PM PM PM PM PM PM            PM PM PM PM PM PM                                  
             |--3--|                      |--3--|                            |--3--|   
  Q    E  E  E  E  E  E  E     Q    E  E  E  E  E  E  E     E  E  E  E  Q    E  E  E   
----------------------------|----------------------------|----------------------------|
----------------------------|----------------------------|----------------------------|
--9----------------------8--|--9-------------------------|----------------------------|
--9----------------------8--|--9-------------------------|----------------------------|
--7----------------------6--|--7-------------------------|--7-----7--7--5----5--7--5--|
-------0--0--0--0--0--0-----|-------0--0--0--0--0--0--0--|-----5----------------------|


                             PM PM PM PM PM PM            PM PM PM PM PM PM     
                                   |--3--|                      |--3--|         
  H.           E  E     Q    E  E  E  E  E  E  E     Q    E  E  E  E  E  E  E   
---------------------|----------------------------|----------------------------|
---------------------|----------------------------|----------------------------|
------------------8--|--9----------------------8--|--9-------------------------|
------------------8--|--9----------------------8--|--9-------------------------|
--4------------L--6--|--7----------------------6--|--7-------------------------|
---------------------|-------0--0--0--0--0--0-----|-------0--0--0--0--0--0--0--|


                                          pick scrape                                   
                                                                              PM PM     
                   |--3--|                           |--3--|                  |--3--|   
  E  E  E  E  Q    E  E  E     H          Q          E  E  E     H.           E  E  E   
----------------------------|---------------------------------|------------------------|
----------------------------|---------------------------------|------------------------|
----------------------------|-------------x\---------6--7--8--|--9---------------------|
----------------------------|-------------x\---------6--7--8--|--9---------------------|
--7-----7--7--5----5--7--5--|--4~--------------------4--5--6--|--7------------4--5--6--|
-----5----------------------|---------------------------------|------------------------|


                     PM PM                                                         PM PM PM     
                |---3---|                                                                       
  H.            Q    S  S     H        Q    Q       H        Q    Q       H        E  E  E  E   
---------------------------|---------------------|---------------------|-----------------------|
---------------------------|---------------------|---------------------|-----------------------|
---------------------------|--9--------9----8----|--7------------------|--2--------7--7--7--8--|
---------------------------|--9--------9----8----|--7------------------|--2--------7--7--7--8--|
--7~------------7----------|--7--------7----6----|--5--------4----2----|--0--------5--5--5--6--|
---------------------0--0--|---------------------|---------------------|-----------------------|


  Q     E  E  H           W                 
-----------------------|-------------------|
-----------------------|-------------------|
--9\----3--2--L--------|--L----------------|
--9\----3--2--L--------|--L----------------|
--7\----1--0--L--------|--L----------------|
-----------------------|-------------------|

                    
                                             |-3|               
  Q                                          E  Q    H          
--------------------------------------------------------------||
--------------------------------------------------------------||
--L------------------------------------------2--2-------------||
--L------------------------------------------2--2-------------||
--L------------------------------------------0--0-------------||
--------------------------------------------------------------||



Rhythm - Michael


      W                   W                   W                   W                 
D#||-------------------|-------------------|-------------------|-------------------|
A#||-------------------|-------------------|-------------------|-------------------|
F#||-------------------|-------------------|-------------------|-------------------|
C#||-------------------|-------------------|-------------------|-------------------|
G#||-------------------|-------------------|-------------------|-------------------|
D#||-------------------|-------------------|-------------------|-------------------|


  W                   W                   W                   W                   W                 
-------------------|-------------------|-------------------|-------------------|-------------------|
-------------------|-------------------|-------------------|-------------------|-------------------|
-------------------|-------------------|-------------------|-------------------|-------------------|
-------------------|-------------------|-------------------|-------------------|-------------------|
-------------------|-------------------|-------------------|-------------------|-------------------|
-------------------|-------------------|-------------------|-------------------|-------------------|


  W                   W                   W                   W                   W                 
-------------------|-------------------|-------------------|-------------------|-------------------|
-------------------|-------------------|-------------------|-------------------|-------------------|
-------------------|-------------------|-------------------|-------------------|-------------------|
-------------------|-------------------|-------------------|-------------------|-------------------|
-------------------|-------------------|-------------------|-------------------|-------------------|
-------------------|-------------------|-------------------|-------------------|-------------------|


  W                   W                   W                   W                   W                 
-------------------|-------------------|-------------------|-------------------|-------------------|
-------------------|-------------------|-------------------|-------------------|-------------------|
-------------------|-------------------|-------------------|-------------------|-------------------|
-------------------|-------------------|-------------------|-------------------|-------------------|
-------------------|-------------------|-------------------|-------------------|-------------------|
-------------------|-------------------|-------------------|-------------------|-------------------|


                                                               pick scrape          
  W                   W                   W                    H.            E  E   
-------------------|-------------------|-------------------|-----------------------|
-------------------|-------------------|-------------------|-----------------------|
-------------------|-------------------|-------------------|-----------------------|
-------------------|-------------------|-------------------|---x\---------------6--|
-------------------|-------------------|-------------------|---x\---------------6--|
-------------------|-------------------|-------------------|--------------------4--|


       PM PM PM PM PM PM PM    PM PM PM PM PM PM PM PM            PM PM PM PM PM PM PM  
             |--3--|                       |--3--|                      |--3--|         
  Q    E  E  E  E  E  E  E     E  E  E  E  E  E  E  E  E     Q    E  E  E  E  E  E  E   
----------------------------|-----------------------------|----------------------------|
----------------------------|-----------------------------|----------------------------|
----------------------------|-----------------------------|----------------------------|
--7-------------------------|--------------------------6--|--7-------------------------|
--7-------------------------|--------------------------6--|--7-------------------------|
--5----5--5--5--5--5--5--5--|--5--5--5--5--5--5--5--5--4--|--5----5--5--5--5--5--5--5--|


  PM PM PM PM PM PM PM PM            PM PM PM PM PM PM PM    PM PM PM PM PM PM PM PM     
              |--3--|                      |--3--|                       |--3--|         
  E  E  E  E  E  E  E  E  E     Q    E  E  E  E  E  E  E     E  E  E  E  E  E  E  E  E   
-----------------------------|----------------------------|-----------------------------|
-----------------------------|----------------------------|-----------------------------|
-----------------------------|----------------------------|--------------------------8--|
--------------------------6--|--7-------------------------|--------------------------8--|
--------------------------6--|--7-------------------------|--------------------------6--|
--5--5--5--5--5--5--5--5--4--|--5----5--5--5--5--5--5--5--|--5--5--5--5--5--5--5--5-----|


       PM PM PM PM PM PM PM    PM PM PM PM PM PM PM PM            PM PM PM PM PM PM     
             |--3--|                       |--3--|                      |--3--|         
  Q    E  E  E  E  E  E  E     E  E  E  E  E  E  E  E  E     Q    E  E  E  E  E  E  E   
----------------------------|-----------------------------|----------------------------|
----------------------------|-----------------------------|----------------------------|
--9-------------------------|--------------------------8--|--9----------------------8--|
--9-------------------------|--------------------------8--|--9----------------------8--|
--7-------------------------|--------------------------6--|--7----------------------6--|
-------0--0--0--0--0--0--0--|--0--0--0--0--0--0--0--0-----|-------0--0--0--0--0--0-----|


       PM PM PM PM PM PM       PM PM                             PM                       
             |--3--|                            |---3---|                     |---3---|   
  Q    E  E  E  E  E  E  E     E  E  E  E  Q    E   E   E     E  E  Q    Q    E   E   E   
----------------------------|------------------------------|-----------------------------|
----------------------------|------------------------------|-----------------------------|
--9-------------------------|------------------------------|-----------------------------|
--9-------------------------|------------------------------|-----------------------------|
--7-------------------------|--------7--7--5----5h--7p--5--|--4----------4----4h--5h--7--|
-------0--0--0--0--0--0--0--|--5--5------------------------|-----5--5--------------------|


       PM PM PM PM PM PM PM    PM PM PM PM PM PM PM PM            PM PM PM PM PM PM PM  
             |--3--|                       |--3--|                      |--3--|         
  Q    E  E  E  E  E  E  E     E  E  E  E  E  E  E  E  E     Q    E  E  E  E  E  E  E   
----------------------------|-----------------------------|----------------------------|
----------------------------|-----------------------------|----------------------------|
----------------------------|--------------------------8--|--9-------------------------|
--7-------------------------|--------------------------8--|--9-------------------------|
--7-------------------------|--------------------------6--|--7-------------------------|
--5----5--5--5--5--5--5--5--|--5--5--5--5--5--5--5--5-----|-------0--0--0--0--0--0--0--|


  PM PM PM PM PM PM PM PM            PM PM PM PM PM PM            PM PM PM PM PM PM PM  
              |--3--|                      |--3--|                      |--3--|         
  E  E  E  E  E  E  E  E  E     Q    E  E  E  E  E  E  E     Q    E  E  E  E  E  E  E   
-----------------------------|----------------------------|----------------------------|
-----------------------------|----------------------------|----------------------------|
--------------------------8--|--9----------------------8--|--9-------------------------|
--------------------------8--|--9----------------------8--|--9-------------------------|
--------------------------6--|--7----------------------6--|--7-------------------------|
--0--0--0--0--0--0--0--0-----|-------0--0--0--0--0--0-----|-------0--0--0--0--0--0--0--|


  PM PM                             PM                         PM PM                  
                   |---3---|                     |---3---|                            
  E  E  E  E  Q    E   E   E     E  E  Q    Q    E   E   E     E  E  Q    E  E  Q     
------------------------------|-----------------------------|-------------3--3--L----|
------------------------------|-----------------------------|-------------3--3--L----|
------------------------------|-----------------------------|--7--7--7----0--0--L----|
------------------------------|-----------------------------|--7--7--7----0--0--L----|
--------7--7--5----5h--7p--5--|--4----------4----4h--5h--7--|--5--5--5---------------|
--5--5------------------------|-----5--5--------------------|-------------3--3--L----|


  PM PM PM PM PM PM PM PM PM PM    PM PM PM                 PM PM                 
        |--3--|        |--3--|                                                    
  E  E  E  E  E  E  E  E  E  E     E  E  Q    E  E  Q       E  E  Q    Q    Q     
--------------------------------|------------------------|-----------------------|
--------------------------------|------------------------|-----------------------|
--------------------------------|--7--7--7---------------|--7--7--7----7----8----|
--------------------------------|--7--7--7----5--5--5----|--7--7--7----7----8----|
--5--5--5--5--5--5--5--5--5--5--|--5--5--5----5--5--5----|--5--5--5----5----6----|
--------------------------------|-------------3--3--3----|-----------------------|


  PM PM      PM PM PM         PM PM PM   PM PM PM      PM PM PM                                     
             |--3--|                                                                                
  E  E  Q    E  E  E  Q       E  E  Q    E  E  Q       E  E  Q    E  E  Q       Q    Q    H         
---------------------------|------------------------|------------------------|---------------------|
---------------------------|------------------------|------------------------|---------------------|
--9--9--9------------------|--9--9--9----9--9--9----|--9--9--9---------------|--9----8----7--------|
--9--9--9----7--7--7--7----|--9--9--9----9--9--9----|--9--9--9---------------|--9----8----7--------|
--7--7--7----7--7--7--7----|--7--7--7----7--7--7----|--7--7--7----6--6--6----|--7----6----5--------|
-------------5--5--5--5----|------------------------|-------------7--7--7----|---------------------|


       PM PM PM PM PM PM PM    PM PM PM PM PM PM PM PM            PM PM PM PM PM PM PM  
             |--3--|                       |--3--|                      |--3--|         
  Q    E  E  E  E  E  E  E     E  E  E  E  E  E  E  E  E     Q    E  E  E  E  E  E  E   
----------------------------|-----------------------------|----------------------------|
----------------------------|-----------------------------|----------------------------|
----------------------------|--------------------------8--|--9-------------------------|
--7-------------------------|--------------------------8--|--9-------------------------|
--7-------------------------|--------------------------6--|--7-------------------------|
--5----5--5--5--5--5--5--5--|--5--5--5--5--5--5--5--5-----|-------0--0--0--0--0--0--0--|


  PM PM PM PM PM PM PM PM            PM PM PM PM PM PM            PM PM PM PM PM PM PM  
              |--3--|                      |--3--|                      |--3--|         
  E  E  E  E  E  E  E  E  E     Q    E  E  E  E  E  E  E     Q    E  E  E  E  E  E  E   
-----------------------------|----------------------------|----------------------------|
-----------------------------|----------------------------|----------------------------|
--------------------------8--|--9----------------------8--|--9-------------------------|
--------------------------8--|--9----------------------8--|--9-------------------------|
--------------------------6--|--7----------------------6--|--7-------------------------|
--0--0--0--0--0--0--0--0-----|-------0--0--0--0--0--0-----|-------0--0--0--0--0--0--0--|


  PM PM                             PM                       PM PM PM PM PM PM PM  
                   |---3---|                                       |--3--|         
  E  E  E  E  Q    E   E   E     E  E  Q    H           Q    E  E  E  E  E  E  E   
------------------------------|----------------------|----------------------------|
------------------------------|----------------------|----------------------------|
------------------------------|----------------------|----------------------------|
------------------------------|----------------------|--7-------------------------|
--------7--7--5----5h--7p--5--|--4-------------------|--7-------------------------|
--5--5------------------------|-----5--5----5--------|--5----5--5--5--5--5--5--5--|


  PM PM PM PM PM PM PM            PM PM PM PM PM PM    PM PM PM PM PM PM PM     
  E  E  E  E  E  E  E  E     Q    E  E  E  E  E  E     E  E  E  E  E  E  E  E   
--------------------------|-------------------------|--------------------------|
--------------------------|-------------------------|--------------------------|
-----------------------8--|--9----------------------|-----------------------8--|
-----------------------8--|--9----------------------|-----------------------8--|
-----------------------6--|--7----------------------|-----------------------6--|
--5--5--5--5--5--5--5-----|-------0--0--0--0--0--0--|--0--0--0--0--0--0--0-----|


       PM PM PM PM PM PM    PM PM PM PM PM PM PM             PM PM PM PM PM PM                      
  Q    E  E  E  E  E  E     E  E  E  E  E  E  E  E     E  E  E  E  E  E  E  E     W                 
-------------------------|--------------------------|--------------------------|-------------------|
-------------------------|--------------------------|--------------------------|-------------------|
--9----------------------|-----------------------8--|--9--9--------------------|-------------------|
--9----------------------|-----------------------8--|--9--9--------------------|--7----------------|
--7----------------------|-----------------------6--|--7--7--------------------|--7----------------|
-------0--0--0--0--0--0--|--0--0--0--0--0--0--0-----|--------0--0--0--0--0--0--|--5----------------|


       PM PM PM PM PM PM    PM PM PM PM PM PM PM PM            PM    PM PM PM PM  
                                  |--3--|                                         
  Q    E  E  E  E  E  E     E  E  E  E  E  E  E  E  E     Q    E  E  E  E  E  E   
-------------------------|-----------------------------|-------------------------|
-------------------------|-----------------------------|-------------------------|
-------------------------|--------------------------8--|--9----------------------|
--7----------------------|--------------------------8--|--9----------------------|
--7----------------------|--------------------------6--|--7----------------------|
--5----5--5--5--5--5--5--|--5--5--5--5--5--5--5--5-----|-------0--0--0--0--0--0--|


  PM PM PM PM PM PM PM            PM PM PM PM PM            PM PM PM PM PM PM  
  E  E  E  E  E  E  E  E     Q    E  E  E  E  E  E     Q    E  E  E  E  E  E   
--------------------------|-------------------------|-------------------------|
--------------------------|-------------------------|-------------------------|
-----------------------8--|--9----------------------|----------------------8--|
-----------------------8--|--9----------------------|----------------------8--|
-----------------------6--|--7----------------------|----------------------6--|
--0--0--0--0--0--0--0-----|-------0--0--0--0--0--0--|--0----0--0--0--0--0-----|


       PM PM PM PM PM                            PM PM      PM PM PM         PM PM                
                                                            |--3--|                               
  Q    E  E  E  E  E  E     W                    E  E  Q    E  E  E  Q       E  E  Q    H         
-------------------------|--------------------|---------------------------|----------------------|
-------------------------|--------------------|---------------------------|----------------------|
--9----------------------|--------------------|--------7------------------|--------7----7--------|
--9----------------------|--7~----------------|--------7-------------5----|--------7----7--------|
--7----------------------|--7~----------------|--5--5--5-------------5----|--5--5--5----5--------|
-------0--0--0--0--0--0--|--5~----------------|-------------3--3--3--3----|----------------------|


  PM PM      PM PM PM         PM PM                   PM PM      PM PM PM       
             |--3--|                                             |--3--|        
  E  E  Q    E  E  E  Q       E  E  Q    Q    Q       E  E  Q    E  E  E  Q     
---------------------------|-----------------------|---------------------------|
---------------------------|-----------------------|---------------------------|
--------7------------------|--------7----7----8----|--9--9--9------------------|
--------7-------------5----|--------7----7----8----|--9--9--9----7--7--7--7----|
--5--5--5-------------5----|--5--5--5----5----6----|--7--7--7----7--7--7--7----|
-------------3--3--3--3----|-----------------------|-------------5--5--5--5----|


  PM PM PM               PM PM PM                                             PM PM PM PM PM PM PM  
                                                                                    |--3--|         
  E  E  Q    H           E  E  Q    E  E  Q       Q    Q    Q    Q       Q    E  E  E  E  E  E  E   
----------------------|------------------------|----------------------|----------------------------|
----------------------|------------------------|----------------------|----------------------------|
--9--9--9----9--------|--9--9--9---------------|--9----8----7---------|----------------------------|
--9--9--9----9--------|--9--9--9---------------|--9----8----7---------|--7-------------------------|
--7--7--7----7--------|--7--7--7----6--6--6----|--7----6----5----3----|--7-------------------------|
----------------------|-------------7--7--7----|----------------------|--5----5--5--5--5--5--5--5--|


  PM PM PM PM PM PM PM PM            PM PM PM PM PM PM PM    PM PM PM PM PM PM PM PM     
              |--3--|                      |--3--|                       |--3--|         
  E  E  E  E  E  E  E  E  E     Q    E  E  E  E  E  E  E     E  E  E  E  E  E  E  E  E   
-----------------------------|----------------------------|-----------------------------|
-----------------------------|----------------------------|-----------------------------|
--------------------------8--|--9-------------------------|--------------------------8--|
--------------------------8--|--9-------------------------|--------------------------8--|
--------------------------6--|--7-------------------------|--------------------------6--|
--5--5--5--5--5--5--5--5-----|-------0--0--0--0--0--0--0--|--0--0--0--0--0--0--0--0-----|


       PM PM PM PM PM PM            PM PM PM PM PM PM                                  
             |--3--|                      |--3--|                            |--3--|   
  Q    E  E  E  E  E  E  E     Q    E  E  E  E  E  E  E     E  E  E  E  Q    E  E  E   
----------------------------|----------------------------|----------------------------|
----------------------------|----------------------------|----------------------------|
--9----------------------8--|--9-------------------------|----------------------------|
--9----------------------8--|--9-------------------------|----------------------------|
--7----------------------6--|--7-------------------------|--4-----4--4--2----2--4--2--|
-------0--0--0--0--0--0-----|-------0--0--0--0--0--0--0--|-----5----------------------|


                             PM PM PM PM PM PM            PM PM PM PM PM PM     
                                   |--3--|                      |--3--|         
  H.           E  E     Q    E  E  E  E  E  E  E     Q    E  E  E  E  E  E  E   
---------------------|----------------------------|----------------------------|
---------------------|----------------------------|----------------------------|
------------------8--|--9----------------------8--|--9-------------------------|
------------------8--|--9----------------------8--|--9-------------------------|
------------------6--|--7----------------------6--|--7-------------------------|
--5------------L-----|-------0--0--0--0--0--0-----|-------0--0--0--0--0--0--0--|


                                         pick scrape                                   
                                                                             PM PM     
                   |--3--|                          |--3--|                  |--3--|   
  E  E  E  E  Q    E  E  E     H         Q          E  E  E     H.           E  E  E   
----------------------------|--------------------------------|------------------------|
----------------------------|--------------------------------|------------------------|
----------------------------|------------x\---------6--7--8--|--9---------------------|
----------------------------|------------x\---------6--7--8--|--9---------------------|
--4-----4--4--2----2--4--2--|-----------------------4--5--6--|--7------------4--5--6--|
-----5----------------------|--5-----------------------------|------------------------|


                     PM PM                                                         PM PM PM     
                |---3---|                                                                       
  H.            Q    S  S     H        Q    Q       H        Q    Q       H        E  E  E  E   
---------------------------|---------------------|---------------------|-----------------------|
---------------------------|---------------------|---------------------|-----------------------|
---------------------------|--9--------9----8----|--7------------------|--2--------7--7--7--8--|
---------------------------|--9--------9----8----|--7------------------|--2--------7--7--7--8--|
--7~------------7----------|--7--------7----6----|--5--------4----2----|--0--------5--5--5--6--|
---------------------0--0--|---------------------|---------------------|-----------------------|


  Q     E  E  H           W                 
-----------------------|-------------------|
-----------------------|-------------------|
--9\----3--2--L--------|--L----------------|
--9\----3--2--L--------|--L----------------|
--7\----1--0--L--------|--L----------------|
-----------------------|-------------------|

                    
                                             |-3|               
  Q                                          E  Q    H          
--------------------------------------------------------------||
--------------------------------------------------------------||
--L------------------------------------------2--2-------------||
--L------------------------------------------2--2-------------||
--L------------------------------------------0--0-------------||
--------------------------------------------------------------||



Lead - Oz Fox


      W                   W                   W                   W                 
D#||-------------------|-------------------|-------------------|-------------------|
A#||-------------------|-------------------|-------------------|-------------------|
F#||-------------------|-------------------|-------------------|-------------------|
C#||-------------------|-------------------|-------------------|-------------------|
G#||-------------------|-------------------|-------------------|-------------------|
D#||-------------------|-------------------|-------------------|-------------------|


  W                   W                   W                   W                   W                 
-------------------|-------------------|-------------------|-------------------|-------------------|
-------------------|-------------------|-------------------|-------------------|-------------------|
-------------------|-------------------|-------------------|-------------------|-------------------|
-------------------|-------------------|-------------------|-------------------|-------------------|
-------------------|-------------------|-------------------|-------------------|-------------------|
-------------------|-------------------|-------------------|-------------------|-------------------|


  W                   W                   W                   W                   W                 
-------------------|-------------------|-------------------|-------------------|-------------------|
-------------------|-------------------|-------------------|-------------------|-------------------|
-------------------|-------------------|-------------------|-------------------|-------------------|
-------------------|-------------------|-------------------|-------------------|-------------------|
-------------------|-------------------|-------------------|-------------------|-------------------|
-------------------|-------------------|-------------------|-------------------|-------------------|


  W                   W                   W                   W                   W                 
-------------------|-------------------|-------------------|-------------------|-------------------|
-------------------|-------------------|-------------------|-------------------|-------------------|
-------------------|-------------------|-------------------|-------------------|-------------------|
-------------------|-------------------|-------------------|-------------------|-------------------|
-------------------|-------------------|-------------------|-------------------|-------------------|
-------------------|-------------------|-------------------|-------------------|-------------------|


  W                   W                   W                   W                   W                 
-------------------|-------------------|-------------------|-------------------|-------------------|
-------------------|-------------------|-------------------|-------------------|-------------------|
-------------------|-------------------|-------------------|-------------------|-------------------|
-------------------|-------------------|-------------------|-------------------|-------------------|
-------------------|-------------------|-------------------|-------------------|-------------------|
-------------------|-------------------|-------------------|-------------------|-------------------|


  W                   W                   W                   W                   W                 
-------------------|-------------------|-------------------|-------------------|-------------------|
-------------------|-------------------|-------------------|-------------------|-------------------|
-------------------|-------------------|-------------------|-------------------|-------------------|
-------------------|-------------------|-------------------|-------------------|-------------------|
-------------------|-------------------|-------------------|-------------------|-------------------|
-------------------|-------------------|-------------------|-------------------|-------------------|


  W                   W                   W                   W                   W                 
-------------------|-------------------|-------------------|-------------------|-------------------|
-------------------|-------------------|-------------------|-------------------|-------------------|
-------------------|-------------------|-------------------|-------------------|-------------------|
-------------------|-------------------|-------------------|-------------------|-------------------|
-------------------|-------------------|-------------------|-------------------|-------------------|
-------------------|-------------------|-------------------|-------------------|-------------------|


                                                                               NH       NH  
                                                                       |---3---|            
  W                   W                   W                   H        Q       E   E    E   
-------------------|-------------------|-------------------|----------------<>12---L-------|
-------------------|-------------------|-------------------|-------------------------------|
-------------------|-------------------|-------------------|-------------------------------|
-------------------|-------------------|-------------------|--------------------------<>5--|
-------------------|-------------------|-------------------|-------------------------------|
-------------------|-------------------|-------------------|-------------------------------|


    NH     NH     NH     \2                                                                    
    |------3------|                                                                            
    Q      Q      Q      H           W                   W                   W                 
----------------------------------|-------------------|-------------------|-------------------|
----------------<>5----<>L--------|-------------------|-------------------|-------------------|
---------<>5----------------------|-------------------|-------------------|-------------------|
--<>L-----------------------------|-------------------|-------------------|-------------------|
----------------------------------|-------------------|-------------------|-------------------|
----------------------------------|-------------------|-------------------|-------------------|


                      PM PM   PH   PM PM   PH      PM PM   PH   PM PM   PH    
  W                   E  E    Q    E  E    Q       E  E    Q    E  E    Q     
-------------------|----------------------------|----------------------------|
-------------------|----------------------------|----------------------------|
-------------------|--------<>7-----------------|--------<>7----------<>7----|
-------------------|---------------------<>5----|----------------------------|
-------------------|--5--5----------------------|--5--5---------5--5---------|
-------------------|---------------3--3---------|----------------------------|


  PM PM   PH   PM PM   PH      PM PM   PH     PH     PH      PM PM   PH   PM PM   PH    
  E  E    Q    E  E    Q       E  E    Q      Q      Q       E  E    Q    E  E    Q     
----------------------------|-----------------------------|----------------------------|
----------------------------|-----------------------------|----------------------------|
--------<>7-----------------|--------<>7----<>7----<>8----|--------<>9-----------------|
---------------------<>5----|-----------------------------|---------------------<>7----|
--5--5----------------------|--5--5-----------------------|--7--7----------------------|
---------------3--3---------|-----------------------------|---------------5--5---------|


  PM PM   PH     PH   PH         PM PM   PH   PM PM   PH        PH     PH     PH     PH    
  E  E    Q      E    E  Q       E  E    Q    E  E    Q         Q      Q      Q      Q     
------------------------------|----------------------------|------------------------------|
------------------------------|----------------------------|------------------------------|
--------<>9----<>9--<>9--L----|--------<>9----------<>8----|------------------------------|
------------------------------|----------------------------|------------------------------|
--7--7------------------------|--7--7---------6--6---------|--<>7----<>6----<>5----<>3----|
------------------------------|----------------------------|------------------------------|


  W                   W                   W                   W                   W                 
-------------------|-------------------|-------------------|-------------------|-------------------|
-------------------|-------------------|-------------------|-------------------|-------------------|
-------------------|-------------------|-------------------|-------------------|-------------------|
-------------------|-------------------|-------------------|-------------------|-------------------|
-------------------|-------------------|-------------------|-------------------|-------------------|
-------------------|-------------------|-------------------|-------------------|-------------------|


  W                   W                   H        Q     E    E      H.             E      E   
-------------------|-------------------|-------------------------|----------------------------|
-------------------|-------------------|---------------------14--|----------------------------|
-------------------|-------------------|----------------16b------|--16b------------16pbr---L--|
-------------------|-------------------|-------------------------|----------------------------|
-------------------|-------------------|-------------------------|----------------------------|
-------------------|-------------------|-------------------------|----------------------------|


                                                                                 |----3---|   
   Q     H          E    E      Q      H          E      E      Q     H          E    E   E   
----------------------------|-------------------------------|--------------------------------|
------------------------14--|-------------------------------|-------------------12h--14------|
--14----16b--------16b------|--14b-----L~--------14pbr---L--|--13----14b------------------x--|
----------------------------|-------------------------------|--------------------------------|
----------------------------|-------------------------------|--------------------------------|
----------------------------|-------------------------------|--------------------------------|


   E   E   E   E   H             E   E   E   E   Q      Q         E   E   E   E   E   E   E   E   
-----------------------------|--------------------------------|----------16----------14----------|
--17--17--17--15---L~--------|--------------------------------|--17--17------17--15------15--14--|
-----------------------------|--18--18--18--16---L~-----L\----|----------------------------------|
-----------------------------|--------------------------------|----------------------------------|
-----------------------------|--------------------------------|----------------------------------|
-----------------------------|--------------------------------|----------------------------------|


                             |----3---|   |----3---|   |----3---|   |----3---|   
   H.             E   E      E    E   E   E    E   E   E    E   E   E    E   E   
---------------------19--|--21p--19------22p--19------21p--19------22p--19------|
--17~-------------L------|-----------20-----------20-----------20-----------20--|
-------------------------|------------------------------------------------------|
-------------------------|------------------------------------------------------|
-------------------------|------------------------------------------------------|
-------------------------|------------------------------------------------------|


   |----3----|   |----3----|                  |----3---|   |----3---|   |----3---|   |----3---|   
   E    E    E   E    E    E   Q.      E      E    E   E   E    E   E   E    E   E   E    E   E   
--19h--21h--22--21p--19h--22--21------14--|--16p--14------17p--14------16p--14------17p--14------|
------------------------------------------|-----------15-----------15-----------15-----------15--|
------------------------------------------|------------------------------------------------------|
------------------------------------------|------------------------------------------------------|
------------------------------------------|------------------------------------------------------|
------------------------------------------|------------------------------------------------------|


   |---3---|   |---3---|         |---3---|                                 
   E   E   E   E   E   E   Q     E   E   E      E   E   E   E   H          
--14--16--17--17--14--17--16----16--17--19--|--19--19--19--17---L~--------|
--------------------------------------------|-----------------------------|
--------------------------------------------|-----------------------------|
--------------------------------------------|-----------------------------|
--------------------------------------------|-----------------------------|
--------------------------------------------|-----------------------------|


                                 |----3----|   |----3----|   |----3----|   |----3----|   
   E   E   E   E   H             E    E    E   E    E    E   E    E    E   E    E    E   
--16--16--16-----------------|----------------------------------------------------------|
--------------19---L~--------|--17h--21p--17--15h--19p--15--14h--17p--14--12h--15p--12--|
-----------------------------|----------------------------------------------------------|
-----------------------------|----------------------------------------------------------|
-----------------------------|----------------------------------------------------------|
-----------------------------|----------------------------------------------------------|


                       PM PM   PH   PM PM   PH      PM PM   PH   PM PM   PH    
   W                   E  E    Q    E  E    Q       E  E    Q    E  E    Q     
--------------------|----------------------------|----------------------------|
--------------------|----------------------------|----------------------------|
--14----------------|--------<>7-----------------|--------<>7----------<>7----|
--------------------|---------------------<>5----|----------------------------|
--------------------|--5--5----------------------|--5--5---------5--5---------|
--------------------|---------------3--3---------|----------------------------|


  PM PM   PH   PM PM   PH      PM PM   PH     PH     PH      PM PM   PH   PM PM   PH    
  E  E    Q    E  E    Q       E  E    Q      Q      Q       E  E    Q    E  E    Q     
----------------------------|-----------------------------|----------------------------|
----------------------------|-----------------------------|----------------------------|
--------<>7-----------------|--------<>7----<>7----<>8----|--------<>9-----------------|
---------------------<>5----|-----------------------------|---------------------<>7----|
--5--5----------------------|--5--5-----------------------|--7--7----------------------|
---------------3--3---------|-----------------------------|---------------5--5---------|


  PM PM   PH     PH   PH         PM PM   PH   PM PM   PH        PH     PH     PH     PH    
  E  E    Q      E    E  Q       E  E    Q    E  E    Q         Q      Q      Q      Q     
------------------------------|----------------------------|------------------------------|
------------------------------|----------------------------|------------------------------|
--------<>9----<>9--<>9--L----|--------<>9----------<>8----|------------------------------|
------------------------------|----------------------------|------------------------------|
--7--7------------------------|--7--7---------6--6---------|--<>7----<>6----<>5----<>3----|
------------------------------|----------------------------|------------------------------|


  W                   W                   H         H          
-------------------|-------------------|----------------------|
-------------------|-------------------|-----------15b--------|
-------------------|-------------------|----------------------|
-------------------|-------------------|----------------------|
-------------------|-------------------|----------------------|
-------------------|-------------------|----------------------|


   T                                T            T       T       T                  
   |------3-----|                   |----3---|   |---3---|                          
   E     E      E    T   T   S  E   E    E   E   E   E   E       W                  
-------------------------------12----------------------------|---------------------|
--22pb--15pbr---Lp--12h-14p-12-------------------------------|---------------------|
-----------------------------------14p--12p--9--16p--9--14s--|--21~----------------|
-------------------------------------------------------------|---------------------|
-------------------------------------------------------------|-------------------
Добавлено: 24.04.2012
Другие материалы по этой песне:

Страница создана 05.03.2012
http://primanota.ru/stryper/winter-wonderland-chords.htm
Привет, Гость.
Предлагаем пройти революционный курс по гитаре.
Подарок от PrimaNota.Ru, забирай!