PrimaNota.ru - самый крупный в мире бесплатный архив песенных текстов, аккордов, табулатур и нот


Stryper - Saved By Love - таба, видео

Регистрация Запомнить меня
Войти через:  Facebook Google Twitter Vk Yandex Mail.ru

Stryper - Saved By Love - таба, видео

Печатать
Просмотров: 30
Legend
L - tied note
x - dead note
h - hammer on/pull off
b - bend
s - slide
~ - vibrato
g - ghost note
> - accentuated note
t - trill
M - palm mute
. - staccato
P - popping (bass)
S - slapping (bass)
+ - tapping
W - wide vibrato
< - fade in
w - whammy bar
= - tremolo picking
v - brush up
^ - brush down
V - pick stroke up
n - pick stroke down

intro
E |-------------------------------------------------------|
B |-------------------------------------------------------|
G |-----------------------------------5-------------------|
D |--------7-----5--7h-5h-0--5-----5M-------5M-5--7~------|
A |-------------------------------------------------------|
E |--5----------------------------------------------------|


----------------------------------------------------|
----------------------------------------------------|
----------------------------------------------------|
--------7-----5--7h-5h-0--7-----x--8-----x--5--7----|x4
----------------------------------------------------|
--5-------------------------------------------------|

verse 1
----------------------------|----------------|-------------------|----------|
----------------------------|----------------|-------------------|----------|
----------------------------|----------------|--xM-7~------------|--5--3~---|
--7--7-----7--7--------xM---|--3--3~---------|--xM-7~------------|--5--3~---|
--7--7-----7--7--------x----|--3--3~---------|--xM-5~------------|--3--1~---|
--5--5-----5--5--------x----|--1--1~---------|-------------------|----------|


-------------------------------------------------------|----------|
-------------------------------------------------------|----------|
--------7s-9-----7-----5-----4-----------2-------------|----------|
--7----------------------------------------------------|--3~------|
-------------------------------------------------------|--3-------|
-------------------------------------------------------|--1-------|


-------------------|-------------------------|
-------------------|-------------------------|
-------------------|--5-----------5----------|
--x--5-------------|--5-----------5----------|
--x--5-------------|--3-----------3----------|
--x--3-------------|-------------------------|


----------------------------------------------------------------|
----------------------------------------------------------------|
----------------------------------------------------------------|
--------------------------5--------3--------2-------------------|
--3-----------------3-------------------------------------------|
----------------------------------------------------------------|


----------------------------------------------------------------|
----------------------------------------------------------------|
----------------------------------------------------------------|
--------------------------5--------3--------2-------------------|
--2-----------------2-------------------------------------------|
----------------------------------------------------------------|


-------------------------------------------------------------|-------|-------|
-------------------------------------------------------------|-------|--6----|
-------------------------------------------------------------|--2----|--7~---|
--------------------------5--------3-----2-------------------|--2~---|--7----|
--1-----------------1----------------------------------------|--0----|--5----|
-------------------------------------------------------------|-------|-------|

                        chorus 
-------|-------|-------|-------------------------------------------------------|
-------|-------|-------|-------------------------------------------------------|
--5----|--3----|--3----|-----------------------------------5-------------------|
--5----|--3~---|--3~---|--------7-----5--7h-5h-0--5-----5M-------5M-5--7~------|
--3----|--1----|--1----|-------------------------------------------------------|
-------|-------|-------|--5----------------------------------------------------|


----------------------------------------------------|
----------------------------------------------------|
----------------------------------------------------|
--------7-----5--7h-5h-0--7-----x--8-----x--5--7----|x2
----------------------------------------------------|
--5-------------------------------------------------|

verse 2
----------------------------|----------------|-------------------|----------|
----------------------------|----------------|-------------------|----------|
----------------------------|----------------|--xM-7~------------|--5--3~---|
--7--7-----7--7--------xM---|--3--3~---------|--xM-7~------------|--5--3~---|
--7--7-----7--7--------x----|--3--3~---------|--xM-5~------------|--3--1~---|
--5--5-----5--5--------x----|--1--1~---------|-------------------|----------|


-------------------------------------------------------|----------|
-------------------------------------------------------|----------|
--------7s-9-----7-----5-----4-----------2-------------|----------|
--7----------------------------------------------------|--3~------|
-------------------------------------------------------|--3-------|
-------------------------------------------------------|--1-------|


-------------------|-------------------------|
-------------------|-------------------------|
-------------------|--5-----------5----------|
--x--5-------------|--5-----------5----------|
--x--5-------------|--3-----------3----------|
--x--3-------------|-------------------------|


----------------------------------------------------------------|
----------------------------------------------------------------|
----------------------------------------------------------------|
--------------------------5--------3--------2-------------------|
--3-----------------3-------------------------------------------|
----------------------------------------------------------------|


----------------------------------------------------------------|
----------------------------------------------------------------|
----------------------------------------------------------------|
--------------------------5--------3--------2-------------------|
--2-----------------2-------------------------------------------|
----------------------------------------------------------------|


-------------------------------------------------------------|-------|-------|
-------------------------------------------------------------|-------|--6----|
-------------------------------------------------------------|--2----|--7~---|
--------------------------5--------3-----2-------------------|--2~---|--7----|
--1-----------------1----------------------------------------|--0----|--5----|
-------------------------------------------------------------|-------|-------|

                        chorus
-------|-------|-------|-------------------------------------------------------|
-------|-------|-------|-------------------------------------------------------|
--5----|--3----|--3----|-----------------------------------5-------------------|
--5----|--3~---|--3~---|--------7-----5--7h-5h-0--5-----5M-------5M-5--7~------|
--3----|--1----|--1----|-------------------------------------------------------|
-------|-------|-------|--5----------------------------------------------------|


----------------------------------------------------|
----------------------------------------------------|
----------------------------------------------------|
--------7-----5--7h-5h-0--7-----x--8-----x--5--7----|x2
----------------------------------------------------|
--5-------------------------------------------------|

this is where the solo would be------>

bridge
----------------------------------------------------------------|
----------------------------------------------------------------|
----------------------------------------------------------------|
--------------------------5--------3--------2-------------------|
--3-----------------3-------------------------------------------|
----------------------------------------------------------------|


----------------------------------------------------------------|
----------------------------------------------------------------|
----------------------------------------------------------------|
--------------------------5--------3--------2-------------------|
--2-----------------2-------------------------------------------|
----------------------------------------------------------------|


-------------------------------------------------------------|----------------|
-------------------------------------------------------------|----------------|
-------------------------------------------------------------|--2-----4--5----|
--------------------------5--------3-----2-------------------|--2~----4--5----|
--1-----------------1----------------------------------------|--0-----2--3s---|
-------------------------------------------------------------|----------------|


----------------------------------------------------------------|
----------------------------------------------------------------|
----------------------------------------------------------------|
--------------------------7--------5--------4-------------------|
--5-----------------5-------------------------------------------|
----------------------------------------------------------------|


----------------------------------------------------------------|
----------------------------------------------------------------|
----------------------------------------------------------------|
--------------------------7--------5--------4-------------------|
--4-----------------4-------------------------------------------|
----------------------------------------------------------------|


-------------------------------------------------------------|
-------------------------------------------------------------|
-------------------------------------------------------------|
--------------------------7--------5-----4-------------------|
--3-----------------3----------------------------------------|
-------------------------------------------------------------|


-------------------------------------------------------|
-------------------------------------------------------|
--4----------------------------------------------------|
--4~---------------------------------------------------|
--2----------------------------------------------------|
-------------------------------------------------------|


----------------------------------------------------------------|
----------------------------------------------------------------|
----------------------------------------------------------------|
----------------------------------------------------------------|
--------------------------7--------5--------4-------------------|
--5-----------------5-------------------------------------------|


----------------------------------------------------------------|
----------------------------------------------------------------|
----------------------------------------------------------------|
----------------------------------------------------------------|
--------------------------7--------5--------4-------------------|
--4-----------------4-------------------------------------------|


-------------------------------------------------------------|-------|-------|
-------------------------------------------------------------|-------|-------|
-------------------------------------------------------------|-------|-------|
-------------------------------------------------------------|--4~---|--3~---|
--------------------------7--------5-----4-------------------|--4----|--3----|
--3-----------------3----------------------------------------|--2----|--1----|

        chorus
-------|-------------------------------------------------------|
-------|-------------------------------------------------------|
-------|-----------------------------------5-------------------|
--3~---|--------7-----5--7h-5h-0--5-----5M-------5M-5--7~------|
--3----|-------------------------------------------------------|
--1----|--5----------------------------------------------------|


----------------------------------------------------||
----------------------------------------------------||
----------------------------------------------------||
--------7-----5--7h-5h-0--7-----x--8-----x--5--7----||x8
----------------------------------------------------||
--5-------------------------------------------------||
Добавлено: 04.05.2016
Другие материалы по этой песне:
  • Аккорды и текст

Страница создана 04.05.2016
http://primanota.ru/stryper/saved-by-love-chords.htm
Привет, Гость.
Предлагаем пройти революционный курс по гитаре.
Подарок от PrimaNota.Ru, забирай!