PrimaNota.ru - самый крупный в мире бесплатный архив песенных текстов, аккордов, табулатур и нот


Stryper - Let There Be Light - таба, видео

Регистрация Запомнить меня
Войти через:  Facebook Google Twitter Vk Yandex Mail.ru

Stryper - Let There Be Light - таба, видео

Печатать
Просмотров: 32
Уроки эстрадного вокала в Санкт-Петербурге
Title: Let There Be Light
Artist: Stryper
Album: Fallen
Tempo = 83
Electric Guitar

Legend
L - tied note
x - dead note
h - hammer on/pull off
b - bend
s - slide
~ - vibrato 
g - ghost note
> - accentuated note
t - trill
M - palm mute
. - staccato
P - popping (bass)
S - slapping (bass)
+ - tapping
W - wide vibrato
< - fade in
w - whammy bar
= - tremolo picking
v - brush up
^ - brush down
V - pick stroke up
n - pick stroke down

 Intro
  Guitar 1                                             
Eb|----------------------------------------------------|
Bb|----------------------------------------------------|
Gb|----------------------------------------------------|
Db|--------------------------------------------7--6----|
Ab|--------7--------5--------8--------7----------------|
Db|--0--0-----0--0-----0--0-----0--0-----0--0----------|

                                                              
|------------------------------------------------------------|
|------------------------------------------------------------|
|------------------------------------------------------------| x6
|------------------------------------------------------------|
|-------7--------5--------8--------7~------------------------|
|-0--0-----0--0-----0--0-----0--0----------------------------|

Guitar 2: this part comes in during the 2nd time of the intro
|-------------------------------------------------------------------------------|
|--------------------------------15---15-17-------------------------------------|
|-------------------------------------------16--14s-------9---------------------|
|-------------------------------------------------------------------------------|
|-------------------------------------------------------------------------------|
|-------------------------------------------------------------------------------|


Guitar 3:in sync with Guitar 2
|-------------------------------------------------------------------------------|
|-------------------------------------------------------------------------------|
|-------------------------------------------------------------------------------|
|--------------------------------12---12-14-------------------------------------|
|-------------------------------------------14--12s--------7--------------------|
|-------------------------------------------------------------------------------|


Pre-Chorus                                         
|------------------------------------------------|
|------------------------------------------------|
|-------------------7--5-------------------------|
|----------2-----5-------------------------------|
|-1s-3-------------------------------------------|
|------------------------------------------------|

                                                  
|------------------------------------------------|
|------------------------------------------------|
|-------------------9--7-------------------------|
|----------4-----7-------------------------------|
|-3s-5-------------------------------------------|
|------------------------------------------------|

                                                     
|---------------------------------------------------|
|---------------------------------------------------|
|---------------------------------------------------|
|-------------------------------------------7--6----|
|-------7--------5--------8--------7----------------|
|-0--0-----0--0-----0--0-----0--0-----0--0----------|

                                                              
|------------------------------------------------------------|
|------------------------------------------------------------|
|------------------------------------------------------------|
|------------------------------------------------------------|
|-------7--------5--------8--------7~------------------------|
|-0--0-----0--0-----0--0-----0--0----------------------------|

                                                                                
|-------------------------------------------------------------------------------|
|-------------------------------------------------------------------------------|
|-------------------------------------7-----5-----------------------4h----------|
|-------------------2-----------5-----------------------------------------------|
|-1s----3-----------------------------------------------------------------------|
|-------------------------------------------------------------------------------|

                                                                             
|-------------------------|-------------------------------------------------|
|-------------------------|-------------------------------------------------|
|5h-4--2------------------|--------------------9--7-------------------------|
|-----------5-------------|-----------4-----7-------------------------------|
|-------------------------|--3s-5-------------------------------------------|
|-------------------------|-------------------------------------------------|

Chorus                                                                        
|---------------|-------|----------------------------------------------------|
|---------------|-------|----------------------------------------------------|
|-2-------------|-------|----------------------------------------------------|
|-2-----3--3----|--5----|--2-----------------------2--3--------2-------------|
|-0-----3--3----|--5----|--2-----------------------2--3--------2-------------|
|-------3--3----|--5----|--2-----------------------2--3--------2-------------|

        
|------|
|------|
|-2----| x2
|-2----|
|-0----|
|------|

Intro x6 again

Pre-Chorus

Chorus x2

Intro x2 (same as a bridge)

Solo

Chorus x4

intro x2
 
ending slide      
|------|
|------|
|------|
|-7-7s-|
|-7-7s-|
|-7-7s-|
Добавлено: 04.05.2016
Другие материалы по этой песне:
  • Аккорды и текст

Страница создана 04.05.2016
http://primanota.ru/stryper/let-there-be-light-chords.htm
Привет, Гость.
Предлагаем пройти революционный курс по гитаре.
Подарок от PrimaNota.Ru, забирай!