PrimaNota.ru - самый крупный в мире бесплатный архив песенных текстов, аккордов, табулатур и нот


Stryper - Bleeding From Inside Out - таба, видео

Регистрация Запомнить меня
Войти через:  Facebook Google Twitter Vk Yandex Mail.ru

Stryper - Bleeding From Inside Out - таба, видео

Печатать
Просмотров: 101
Уроки эстрадного вокала в Санкт-Петербурге
Song: Bleeding from Inside Out
Artist: Stryper
Album: Second Coming

Tuning: Half-Step Down

Here is a Youtube video of Michael Sweet playing the solo.
www.youtube.com/watch?v=zV69fN-WeRc

Key:
/   = slide
b   = bend
p   = pull off
h   = hammer on
v   = vibrato
m   = muted note
*   = pinch harmonic
pd  = pre dip with the bar, then play note and release bar
X   = muted string noise


[INTRO]
  Guitar 1
 |
e|---------------------------------------------------------------------------|
B|---------------------------------------------------------------------------|
G|---------------------------------------------5-7---------------------------|
D|------2--2------2--2------2--2------0-5-7--0-----5v------------------------|
A|-/----0--0------0--0------0--0---------------------------------------------|
E|-/--3---------3---------3--------------------------------------------------|
 |
 | Guitar 2
 |
e|---------------------------------------------------------------------------|
B|---------------------------------------------------------------------------|
G|---------------------------------------------------------------------------|
D|------2--2------2--2------2--2------5--------------------------------------|
A|-/----0--0------0--0------0--0------3--------5-----------------------------|
E|-/--3---------3---------3--------------------3-----------------------------|


  Guitar 1
 |
e|---------------------------------------------------------------------------|
B|---------------------------------------------------------------------------|
G|---------------------------------------------5-7---------------------------|
D|------2--2------2--2------2--2------0-5-7--0-----5v------------------------|
A|------0--0------0--0------0--0---------------------------------------------|
E|----3---------3---------3--------------------------------------------------|
 |
 | Guitar 2
 |
e|---------------------------------------------------------------------------|
B|---------------------------------------------------------------------------|
G|---------------------------------------------------------------------------|
D|------2--2------2--2------2--2------5--------------------------------------|
A|------0--0------0--0------0--0------3--------5-----------------------------|
E|----3---------3---------3--------------------3-----------------------------|


[VERSE]
  Guitar 1
 |
e|-----------------------------------------------------------------------------|
B|-----------------------------------------------------------------------------|
G|---------------------------------------------5-7-----------------------------|
D|------2--2------2--2------2--2------0-5-7--0-----5v--------------------------|
A|------0--0------0--0------0--0-----------------------------------------------|
E|----3---------3---------3----------------------------------------------------|
 |
 | Guitar 2
 |
e|---------------------------------------------------------------------------|
B|---------------------------------------------------------------------------|
G|---------------------------------------------------------------------------|
D|------2--2------2--2------2--2------5--------------------------------------|
A|------0--0------0--0------0--0------3--------5-----------------------------|
E|----3---------3---------3--------------------3-----------------------------|


  Guitar 1
 |
e|---------------------------------------------------------------------------|
B|---------------------------------------------------------------------------|
G|---------------------------------------------5-7---------------------------|
D|------2--2------2--2------2--2------0-5-7--0-----5v------------------------|
A|------0--0------0--0------0--0---------------------------------------------|
E|----3---------3---------3--------------------------------------------------|
 |
 | Guitar 2
 |
e|---------------------------------------------------------------------------|
B|---------------------------------------------------------------------------|
G|---------------------------------------------------------------------------|
D|------2--2------2--2------2--2---------------------------------------------|
A|------0--0------0--0------0--0------3--------5-----------------------------|
E|----3---------3---------3-----------1--------3-----------------------------|


  Guitar 1
 |
e|---------------------------------------------------------------------------|
B|---------------------------------------------------------------------------|
G|---------------------------------------------5-7---------------------------|
D|------2--2------2--2------2--2------0-5-7--0-----5v------------------------|
A|------0--0------0--0------0--0---------------------------------------------|
E|----3---------3---------3--------------------------------------------------|
 |
 | Guitar 2
 |
e|---------------------------------------------------------------------------|
B|---------------------------------------------------------------------------|
G|---------------------------------------------------------------------------|
D|------2--2------2--2------2--2------5--------------------------------------|
A|------0--0------0--0------0--0------3--------5-----------------------------|
E|----3---------3---------3--------------------3-----------------------------|


[PRE-CHORUS]
  Both Guitars
e|---------------------------------------------------------------------------|
B|---------------------------------------------------------------------------|
G|---------------------------------------------------------------------------|
D|------2--2-----5-5---------2-2---------------------------------------------|
A|------0--0-----3-3---5-5---0-0---------------------------------------------|
E|---3-----------------3-3---------------------------------------------------|


[CHORUS]
  Guitar 1
 |
e|---------------------------------------------------------------------------|
B|---------------------------------------------------------------------------|
G|-----10------14------7------3---------10------14-----7-----9---------------|
D|-------(x8)----(x8)---(x8)---(x8)------(x8)----(x8)---(x8)--(x8)-----------|
A|-XXX--8------12------5------1---------8-------12-----5-----7---------------|
E|---------------------------------------------------------------------------|
 |
 | Guitar 2
 |
e|---------------------------------------------------------------------------|
B|---------------------------------------------------------------------------|
G|---------------------------------------------------------------------------|
D|------7(x8)--10(x8)--3(x8)------------7(x8)---10(x8)-3(x8)-5(x8)-----------|
A|-XXX--5------8-------1------5(x8)--XX-5--------8-----1-----3---------------|
E|----------------------------3----------------------------------------------|


[VERSE]
  Guitar 1
 |
e|---------------------------------------------------------------------------|
B|---------------------------------------------------------------------------|
G|---------------------------------------------5-7---------------------------|
D|------2--2------2--2------2--2------0-5-7--0-----5v------------------------|
A|------0--0------0--0------0--0---------------------------------------------|
E|----3---------3---------3--------------------------------------------------|
 |
 | Guitar 2
 |
e|---------------------------------------------------------------------------|
B|---------------------------------------------------------------------------|
G|---------------------------------------------------------------------------|
D|------2--2------2--2------2--2------5--------------------------------------|
A|------0--0------0--0------0--0------3--------5-----------------------------|
E|----3---------3---------3--------------------3-----------------------------|


  Guitar 1
 |
e|---------------------------------------------------------------------------|
B|---------------------------------------------------------------------------|
G|---------------------------------------------5-7---------------------------|
D|------2--2------2--2------2--2------0-5-7--0-----5v------------------------|
A|------0--0------0--0------0--0---------------------------------------------|
E|----3---------3---------3--------------------------------------------------|
 |
 | Guitar 2
 |
e|---------------------------------------------------------------------------|
B|---------------------------------------------------------------------------|
G|---------------------------------------------------------------------------|
D|------2--2------2--2------2--2------5--------------------------------------|
A|------0--0------0--0------0--0------3--------5-----------------------------|
E|----3---------3---------3--------------------3-----------------------------|

  Guitar 1
 |
e|---------------------------------------------------------------------------|
B|---------------------------------------------------------------------------|
G|---------------------------------------------5-7---------------------------|
D|------2--2------2--2------2--2------0-5-7--0-----5v------------------------|
A|------0--0------0--0------0--0---------------------------------------------|
E|----3---------3---------3--------------------------------------------------|
 |
 | Guitar 2
 |
e|---------------------------------------------------------------------------|
B|---------------------------------------------------------------------------|
G|---------------------------------------------------------------------------|
D|------2--2------2--2------2--2---------------------------------------------|
A|------0--0------0--0------0--0------3--------5-----------------------------|
E|----3---------3---------3-----------1--------3-----------------------------|

  Guitar 1
 |
e|---------------------------------------------------------------------------|
B|---------------------------------------------------------------------------|
G|---------------------------------------------5-7---------------------------|
D|------2--2------2--2------2--2------0-5-7--0-----5v------------------------|
A|------0--0------0--0------0--0---------------------------------------------|
E|----3---------3---------3--------------------------------------------------|
 |
 | Guitar 2
 |
e|---------------------------------------------------------------------------|
B|---------------------------------------------------------------------------|
G|---------------------------------------------------------------------------|
D|------2--2------2--2------2--2------5--------------------------------------|
A|------0--0------0--0------0--0------3--------5-----------------------------|
E|----3---------3---------3--------------------3-----------------------------|


[PRE-CHORUS]
  Both Guitars
e|---------------------------------------------------------------------------|
B|---------------------------------------------------------------------------|
G|---------------------------------------------------------------------------|
D|------2--2-----5-5---------2-2-----2-2-------------------------------------|
A|------0--0-----3-3---5-5---0-0-----0-0-------------------------------------|
E|---3-----------------3-3---------------------------------------------------|


[CHORUS]
  Guitar 1
 |
e|---------------------------------------------------------------------------|
B|---------------------------------------------------------------------------|
G|-----10------14------7------3---------10------14-----7-----9---------------|
D|-------(x8)----(x8)---(x8)---(x8)------(x8)----(x8)---(x8)--(x8)-----------|
A|-XXX--8------12------5------1---------8-------12-----5-----7---------------|
E|---------------------------------------------------------------------------|
 |
 | Guitar 2
 |
e|---------------------------------------------------------------------------|
B|---------------------------------------------------------------------------|
G|---------------------------------------------------------------------------|
D|------7(x8)--10(x8)--3(x8)------------7(x8)---10(x8)-3(x8)-5(x8)-----------|
A|-XXX--5------8-------1------5(x8)--XX-5--------8-----1-----3---------------|
E|----------------------------3----------------------------------------------|


[SOLO]
  Guitar 1
 |
e|---------------------------------------------------------------------------|
B|------20-----20-----20-----------------------------------------------------|
G|--19b----19b----19b----19br-19p17-19p17------------------------------------|
D|----------------------------------------19-17------------------------------|
A|------------------------------------------------17-15v---------------------|
E|---------------------------------------------------------------------------|
 |
 | Guitar 2
 |
e|---------------------------------------------------------------------------|
B|---------------------------------------------------------------------------|
G|---------------------------------------------------------------------------|
D|------2--2------2--2------2--2------5--------------------------------------|
A|------0--0------0--0------0--0------3--------5-----------------------------|
E|----3---------3---------3--------------------3-----------------------------|


  Guitar 1
 |  m    m    m    m    m    m    m
e|---------------------------------------------------------------------------|
B|---------------------------------------------------------------------------|
G|--------------------------------------------16b-16b-16p14h16v--------------|
D|--0-10-0-12-0-10-0-12-0-10-0-12-0-10h12v-----------------------------------|
A|---------------------------------------------------------------------------|
E|---------------------------------------------------------------------------|
 |
 | Guitar 2
 |
e|---------------------------------------------------------------------------|
B|---------------------------------------------------------------------------|
G|---------------------------------------------------------------------------|
D|------2--2------2--2------2--2---------------------------------------------|
A|------0--0------0--0------0--0------3--------5-----------------------------|
E|----3---------3---------3-----------1--------3-----------------------------|


  Guitar 1
 |
e|--12h13-------------13h15-------------15h17------------17h19------------19br-p17h19v-|
B|--------15p13p12h13-------17p15p14h15------18p17p15h17------20p19p17h19--------------|
G|-------------------------------------------------------------------------------------|
D|-------------------------------------------------------------------------------------|
A|-------------------------------------------------------------------------------------|
E|-------------------------------------------------------------------------------------|
 |
 | Guitar 2
 |
e|-------------------------------------------------------------------------------------|
B|-------------------------------------------------------------------------------------|
G|-------------------------------------------------------------------------------------|
D|------2--2------2--2------2--2------5------------------------------------------------|
A|------0--0------0--0------0--0------3--------5---------------------------------------|
E|----3---------3---------3--------------------3---------------------------------------|



  Guitar 1
 |   *NOTE: heavy chorus effect and a heavy octave turned on here
e|--8h13p8----8-8-8(x4)----8h12p8---8-8-8(x4)----8h11p8---8-8-8(x4)----------|
B|---------10---------------------8---------------------8--------------------|
G|---------------------------------------------------------------------------|
D|---------------------------------------------------------------------------|
A|---------------------------------------------------------------------------|
E|---------------------------------------------------------------------------|
 |
 | Guitar 2
 |
e|---------------------------------------------------------------------------|
B|---------------------------------------------------------------------------|
G|---------------------------------------------------------------------------|
D|----------------------------------------------------//---------------------|
A|--8--------------------8-7---------------------6----//---------------------|
E|---------------------------------------------------------------------------|



  Guitar 1
 |
e|------------------------------------------------------------------------------|
B|----------11-13-14-13-11----11-----------------13-15-16-15-13----13-----------|
G|-------13----------------13----13-12--------15----------------15----15-17-14v-|
D|-11-15--------------------------------13-17-----------------------------------|
A|------------------------------------------------------------------------------|
E|------------------------------------------------------------------------------|
 |
 | Guitar 2
 |
e|------------------------------------------------------------------------------|
B|------------------------------------------------------------------------------|
G|------------------------------------------------------------------------------|
D|-6------------------------------------8---------------------------------------|
A|-4------------------------------------6-----------------------------------8v--|
E|------------------------------------------------------------------------------|


  Guitar 1
 |   *NOTE: chorus effect and heavy octave turned off
e|-------------------------------------------20------------------------------|
B|--20b--20p18h20----------20b--20p18h20-20b----20bv-------------------------|
G|----------------17-17v-----------------------------------------------------|
D|---------------------------------------------------------------------------|
A|---------------------------------------------------------------------------|
E|---------------------------------------------------------------------------|
 |
 | Guitar 2
 |
e|---------------------------------------------------------------------------|
B|---------------------------------------------------------------------------|
G|---------------------------------------------------------------------------|
D|---------------------------------------------------------------------------|
A|--8-8b10-7v--------------7--7-6v-------------------------------------------|
E|---------------------------------------------------------------------------|


  Guitar 1
 |   *NOTE: heavy octave and harmonizer turned back on here
e|---------------------------------------------------------------------------|
B|---------------------------------------------------------------------------|
G|--------------5--------------------------7---------------------------------|
D|--------5-7-8---8-7-5-------------7-9-10---10-9-7--------------------------|
A|--4-6-8---------------8-6--6-8-10-----------------10-8-7v------------------|
E|---------------------------------------------------------------------------|
 |
 | Guitar 2
 |                                                       m
e|---------------------------------------------------------------------------|
B|---------------------------------------------------------------------------|
G|---------------------------------------------------------------------------|
D|--6------------------------8---------------------------5--5-5-5------------|
A|--4------------------------6---------------------------3--3-3-3------------|
E|---------------------------------------------------------------------------|


  Guitar 1
 |
e|---------------------------------------------------------------------------|
B|---------------------------------------------------------------------------|
G|--pd10--pd12--pd9/7v-------------------------------------------------------|
D|---------------------------------------------------------------------------|
A|---------------------------------------------------------------------------|
E|---------------------------------------------------------------------------|
 |
 | Guitar 2
 |  m m m m
e|---------------------------------------------------------------------------|
B|---------------------------------------------------------------------------|
G|---------------------------------------------------------------------------|
D|--5-5-5-5----7-------------------------------------------------------------|
A|--3-3-3-3----5-------------------------------------------------------------|
E|---------------------------------------------------------------------------|


[BRIDGE]
  Guitar 1
 |
e|---------------------------------------------------------------------------|
B|---------------------------------------------------------------------------|
G|-----------pd12--pd12--pd14--pd9/7v----------------------------------------|
D|---------------------------------------------------------------------------|
A|---------------------------------------------------------------------------|
E|---------------------------------------------------------------------------|
 |
 | Guitar 2
 |     m m m m m m m m
e|---------------------------------------------------------------------------|
B|---------------------------------------------------------------------------|
G|---------------------------------------------------------------------------|
D|--5--5-5-5-5-5-5-5----7----------------------------------------------------|
A|--3--3-3-3-3-3-3-3----5----------------------------------------------------|
E|---------------------------------------------------------------------------|


  Both Guitars
e|---------------------------------------------------------------------------|
B|---------------------------------------------------------------------------|
G|---------------------------------------------------------------------------|
D|--5--5-5-5-5-5-5-5---------------------------------------------------------|
A|--3--3-3-3-3-3-3-3---------------------------------------------------------|
E|---------------------------------------------------------------------------|



[CHORUS]
  Guitar 1
 |   *NOTE: normal effects                                    1.______ 2.______
e|-----------------------------------------------------------|--------|--------|
B|--6-6---5-6---5-------------------6-6---5-6---5------------|--------|--------|
G|*-----7-----7---7-5-------5------------7----7---7-5--------|-------*|--5/7--*|
D|*-------------------8-7-8---8-7-5-------------------8-7-8--|--7*v--*|-------*|
A|-----------------------------------------------------------|--------|--------|
E|-----------------------------------------------------------|--------|--------|
 |
 | Guitar 2
 |
e|-----------------------------------------------------------------------------|
B|-----------------------------------------------------------------------------|
G|-----------------------------------------------------------------------------|
D|------7(x8)--10(x8)--3(x8)---------------------------------------------------|
A|------5------8-------1------5(x8)--------------------------------------------|
E|----------------------------3------------------------------------------------|



  Guitar 1
 |                                            1._________________  2__________________________
e|-------------------------------------------|--------------------|-------6-5---5-------------|
B|--6-6---5-6---5-------------------6-6---5-6|---5----------------|-8-6-5-----8---8-6-5---5-6-|
G|*-----7-----7---7-5-------5------------7---|-7---7-5-----------*|---------------------7----*|
D|*-------------------8-7-8---8-7-5----------|---------8-7-8-7*v-*|--------------------------*|
A|-------------------------------------------|--------------------|---------------------------|
E|-------------------------------------------|--------------------|---------------------------|
 |
 | Guitar 2
 |
e|--------------------------------------------------------------------------------------------|
B|--------------------------------------------------------------------------------------------|
G|--------------------------------------------------------------------------------------------|
D|-----7(x8)---10(x8)-3(x8)-5(x8)--10---------------------------------------------------------|
A|-----5--------8-----1-----3------8----------------------------------------------------------|
E|--------------------------------------------------------------------------------------------|
Добавлено: 30.06.2013
Другие материалы по этой песне:
  • Аккорды и текст

Страница создана 30.06.2013
http://primanota.ru/stryper/bleeding-from-inside-out-chords.htm
Привет, Гость.
Предлагаем пройти революционный курс по гитаре.
Подарок от PrimaNota.Ru, забирай!