PrimaNota.ru - самый крупный в мире бесплатный архив песенных текстов, аккордов, табулатур и нот


Stryper - After Forever - таба, видео

Регистрация Запомнить меня
Войти через:  Facebook Google Twitter Vk Yandex Mail.ru

Stryper - After Forever - таба, видео

Печатать
Просмотров: 25
Авторы музыки: Geezer Butler, Ozzy Osbourne, Bill Ward, Tony Iommi
Авторы текста: Geezer Butler, Ozzy Osbourne, Bill Ward, Tony Iommi
Title:  After Forever
Artist: Stryper
Album: Fallen
Tempo = 95
Electric Guitar

Legend
L - tied note
x - dead note
h - hammer on/pull off
b - bend
s - slide
~ - vibrato
g - ghost note
> - accentuated note
t - trill
M - palm mute
. - staccato
P - popping (bass)
S - slapping (bass)
+ - tapping
W - wide vibrato
< - fade in
w - whammy bar
= - tremolo picking
v - brush up
^ - brush down
V - pick stroke up
n - pick stroke down

Intro
Eb|-------------------------------------------------------|
Bb|-------------------------------------------------------|
Gb|-------------------------------------------------------|
Db|--11--------9-----------------7-----------------9---7--|
Ab|--0---------0-----------------0-----------------0---0--|
Db|-------------------------------------------------------|


-----------------------|-------------------------------------------------------|
-----------------------|-------------------------------------------------------|
-----------------------|-------------------------------------------------------| x2
9--7-----5-------------|--7--------0--------2--------5--------5s-7--7s-9-------|
0--0-----0-------------|--0--------0--------0--------0--------0--0--0--0-------|
-----------------------|-------------------------------------------------------|

Verse
----------------------------------------------------|
----------------------------------------------------|
--7s-9--9M-9M-9-----9M-9M-9s-12-12M12M12----12-12M--|
--7s-9--9M-9M-9-----9M-9M-9s-12-12M12M12----12-12M--|
--5s-7--7M-7M-7-----7M-7M-7s-10-10M10M10----10-10M--|
----------------------------------------------------|


----------------------------------------------------|
----------------------------------------------------|
--7s-9--9M-9M-9-----9M-9M-9M------------------------| x6
--7s-9--9M-9M-9-----9M-9M-9M-5--5--5--4--4--3-------|
--5s-7--7M-7M-7-----7M-7M-7M-5--5--5--4--4--3-------|
-----------------------------5--5--5--4--4--3-------|

Intro x4

Verse 2 x6

Verse 3
-------------------------------------------------------|
-------------------------------------------------------|
-------------------------------------------------------|
--5-----------5--------x--5s-7-----7s----5-----5-------|
--5-----------5--------x--5s-7-----7s----5-----5-------|
--5-----------5--------x--5s-7-----7s----5-----5-------|


----------------------------------------------------|
----------------------------------------------------|
----------------------------------------------------| x10
--3-----------3--------x--3s-5--------5s-3----------|
--3-----------3--------x--3s-5--------5s-3----------|
--3-----------3--------x--3s-5--------5s-3----------|

Intro x4

Verse x6

Bridge
-------------------------------------------------|
-------------------------------------------------|
--2--------x--2--------x-------------------------|
--2--------x-----------x--2b----0--2--------0----|
--0--------x-----------x-------------------------|
-------------------------------------------------|


----------------------------------------------------|
----------------------------------------------------|
--2--------x--2--------x----------------------------| x2
--2--------x-----------x--2b----0--2----------------|
--0--------x-----------x----------------------------|
----------------------------------------------------|

Solo

Intro x4

Verse x6

Intro x8

Ending chord hit
------|
------|
---2--|
---2--|
---0--|
------|
Добавлено: 04.05.2016
Другие материалы по этой песне:
  • Аккорды и текст

Страница создана 04.05.2016
http://primanota.ru/stryper/after-forever-chords.htm
Привет, Гость.
Предлагаем пройти революционный курс по гитаре.
Подарок от PrimaNota.Ru, забирай!