PrimaNota.ru - самый крупный в мире бесплатный архив песенных текстов, аккордов, табулатур и нот


Stryper - 4 Leaf Clover - таба, видео

Регистрация Запомнить меня
Войти через:  Facebook Google Twitter Vk Yandex Mail.ru

Stryper - 4 Leaf Clover - таба, видео

Печатать
Просмотров: 233
4 Leaf Clover tab (solo)
By: Stryper

key:

b  = bend
br = bend then release
bf = bend fully
h  = hammer on
p  = pull off
/  = slide down
\  = slide up
+  = tap note
*  = tremolo picking
v  = vibrato

e|-------------------------------|
B|-------------------------------|
G|-7br-7br-7br-7br-9br-9br-------|
D|--------------------------7----|
A|----------------------------9--|
D|-------------------------------|

e|------------------------7-10-14-12v-|
B|----------7-10-8br--8-7-------------|
G|--------7---------------------------|
D|------9-----------------------------|
A|-9-10-------------------------------|
D|------------------------------------|


e|----------17-------------------------------------|
B|-14h15p14---17-15-14h15p14h15p14----------15b----|
G|-----------------------------------14\11v--------|
D|-------------------------------------------------|
A|-------------------------------------------------|
D|-------------------------------------------------|


e|---15-12-------------------------------------------------------------|
B|---------15-12-------------------------------------------------------|
G|---------------14-12-------14-12----------14b-14b-14b-13p11h12v------|
D|---------------------14-12-------14-12h14----------------------------|
A|---------------------------------------------------------------------|
D|---------------------------------------------------------------------|

tapping part
       +    +    +    +    +    +    +   +    +    +    +    +    +
e|-----------------------------------------------------------------------|
B|-7p0-10p0-12p0-10p0-12p0-15p0-14---7p0-10p0-12p0-10p0-17p0-15p0-19-----|
G|-----------------------------------------------------------------------|
D|-----------------------------------------------------------------------|
A|-----------------------------------------------------------------------|
D|-----------------------------------------------------------------------|

       +    +    +    +    +    +    +    +    +    +    +    +
e|-------------------------------------------------------------------19/-|
B|-7p0-10p0-12p0-10p0-12p0-15p0-14---17p0-19p0-20p0-19p0-20p0-22---------|
G|-----------------------------------------------------------------------|
D|-----------------------------------------------------------------------|
A|-----------------------------------------------------------------------|
D|-----------------------------------------------------------------------|

Tremolo part
   ** **   ** *     ** *    ** *
e|-22/10---17/5---------------------------------------------------------|
B|------------------17\5-----------------------------17bf--13p11-12vvv--|
G|--------------------------16\4---9br-11br-13h15\17--------------------|
D|----------------------------------------------------------------------|
A|----------------------------------------------------------------------|
D|----------------------------------------------------------------------|

e|----------------------|
B|----------------------|
G|----------------------|
D|--8--8/---------------|
A|--8--8/---------------|
D|--8--8/---------------|

END OF GUITAR SOLO!!!
        
Добавлено: 27.07.2012
Другие материалы по этой песне:

Страница создана 26.02.2012
http://primanota.ru/stryper/4-leaf-clover-chords.htm
Привет, Гость.
Предлагаем пройти революционный курс по гитаре.
Подарок от PrimaNota.Ru, забирай!