PrimaNota.ru - самый крупный в мире бесплатный архив песенных текстов, аккордов, табулатур и нот


Strunz And Farah - Green Mists - таба, видео

Регистрация Запомнить меня
Войти через:  Facebook Google Twitter Vk Yandex Mail.ru

Strunz And Farah - Green Mists - таба, видео

Печатать
Просмотров: 55
-------------------------------------------------------------------------------
                          Green Mists - Strunz and Farah
-------------------------------------------------------------------------------

Tabbed by: Ashley
E-mail: AshJamBor@gmail.com

Green Mists off Strunz and Farah's new album Moods and Visions.

Tuning: Standard, 4/4, 98bpm

Part A

Guitar 1
  |       |       |       |         |       |       |       |
|---------------------------------|-------------------------------5-|
|---------------------------------|-------------------------5-6-8---|
|---------------------------------|---------------------------------|
|---------------------------------|---------------------------------|
|---------------------------------|---------------------------------|
|---------------------------------|---------------------------------|
Guitar 2
|---------------------------------|---------------------------------|
|---------------------------------|---------------------------------|
|---------------------------------|---------------------------------|
|---------7---------------7-------|---------7---------------7-------|
|-----7-------7-------7-------7---|-----7-------7-------7-------7---|
|-5---------------5---------------|-5---------------5---------------|

  |       |       |       |         |       |       |       |
|-------------------------------5-|-------------------------------5-|
|-5-------5---------------5-6-8---|-5-------5---------------5-6-8---|
|---------------------------------|---------------------------------|
|-----7---------------------------|-----7---------------------------|
|---------------------------------|---------------------------------|
|---------------------------------|---------------------------------|
|
|---------------------------------|---------------------------------|
|---------------------------------|---------------------------------|
|---------------------------------|---------------------------------|
|---------7---------------7-------|---------7---------------7-------|
|-----7-------7-------7-------7---|-----7-------7-------7-------7---|
|-5---------------5---------------|-5---------------5---------------|

  |       |       |       |         |       |       |       |
|-7-------7-------7-------5-------|-------------------------5-------|
|---------------------------------|-8-------6-------8---------------|
|---------------------------------|---------------------------------|
|-----7-------7-------7-------7---|-----7-------7-------7-------7---|
|---------------------------------|---------------------------------|
|---------------------------------|---------------------------------|
|
|---------------------------------|---------------------------------|
|---------------------------------|---------------------------------|
|---------------------------------|---------------------------------|
|---------7---------------7-------|---------7---------------7-------|
|-----7-------7-------7-------7---|-----7-------7-------7-------7---|
|-5---------------5---------------|-5---------------5---------------|

  |         |       |       |         |       |       |       |
|-----------------------------------|---------------------------------|
|-5h6p5-----5---------------5-6-8---|-5-------5---------------8-6---6-|
|---------------------------------7-|-----------------------------7---|
|-------7---------------------------|-----7---------------------------|
|-----------------------------------|---------------------------------|
|-----------------------------------|---------------------------------|
|
|-----------------------------------|---------------------------------|
|-----------------------------------|---------------------------------|
|-----------------------------------|---------------------------------|
|-----------7---------------7-------|---------7---------------7-------|
|-------7-------7-------7-------7---|-----7-------7-------7-------7---|
|-5-----------------5---------------|-5---------------5---------------|

  |       |       |       |         |       |       |       |
|-------------------------------5-|-7-------7-------7-------8-------|
|-5-------5---------------5-6-8---|---------------------------------|
|---------------------------------|---------------------------------|
|-----7---------------------------|-----7-------7-------7-------7---|
|---------------------------------|---------------------------------|
|---------------------------------|---------------------------------|
|
|---------------------------------|---------------------------------|
|---------------------------------|---------------------------------|
|---------------------------------|---------------------------------|
|---------7---------------7-------|---------7---------------7-------|
|-----7-------7-------7-------7---|-----7-------7-------7-------7---|
|-5---------------5---------------|-5---------------5---------------|

  |       |       |       |         |       |
|-5-------7---------------5-------|-----------------|
|-----------------8---------------|-6-------8-------|
|---------------------------------|-----------------|
|-----7-------7-------7-------7---|-----7-------7---|
|---------------------------------|-----------------|
|---------------------------------|-----------------|
|
|---------------------------------|-----------------|
|---------------------------------|-----------------|
|---------------------------------|-----------------|
|---------7---------------7-------|---------7-------|
|-----7-------7-------7-------7---|-----7-------7---|
|-5---------------5---------------|-5---------------|

  |         |       |       |         |       |       |       |
|-----------------------------------|---------------------------------|
|-5h6p5-----5---------------5-6-8---|-5-------5---------------8-6---6-|
|---------------------------------7-|-----------------------------7---|
|-------7---------------------------|-----7---------------------------|
|-----------------------------------|---------------------------------|
|-----------------------------------|---------------------------------|
|
|-----------------------------------|---------------------------------|
|-----------------------------------|---------------------------------|
|-----------------------------------|---------------------------------|
|-----------7---------------7-------|---------7---------------7-------|
|-------7-------7-------7-------7---|-----7-------7-------7-------7---|
|-5-----------------5---------------|-5---------------5---------------|

  |       |       |       |
|-------------------------------2-|
|-5-------5---------------2-3-5---|
|---------------------------------|
|-----7---------------------------|
|---------------------------------|
|---------------------------------|
|
|---------------------------------|
|---------------------------------|
|---------------------------------|
|---------7---------------7-------|
|-----7-------7-------7-------7---|
|-5---------------5---------------|


Part B
  |       |       |       |         |       |       |       |
|-------------------------------2-|-------------------------------2-|
|-2-------2---------------2-3-5---|-2-------2---------------2-3-5---|
|---------------------------------|---------------------------------|
|-----4---------------------------|-----4---------------------------|
|---------------------------------|---------------------------------|
|---------------------------------|---------------------------------|
|
|---------------------------------|---------------------------------|
|---------------------------------|---------------------------------|
|---------------------------------|---------------------------------|
|---------4---------------4-------|---------4---------------4-------|
|-----4-------4-------4-------4---|-----4-------4-------4-------4---|
|-2---------------2---------------|-2---------------2---------------|

  |       |       |       |         |       |       |       |
|-4-------4-------4-------2-------|-------------------------2-------|
|---------------------------------|-5-------3-------5---------------|
|---------------------------------|---------------------------------|
|-----4-------4-------4-------4---|-----4-------4-------4-------4---|
|---------------------------------|---------------------------------|
|---------------------------------|---------------------------------|
|
|---------------------------------|---------------------------------|
|---------------------------------|---------------------------------|
|---------------------------------|---------------------------------|
|---------4---------------4-------|---------4---------------4-------|
|-----4-------4-------4-------4---|-----4-------4-------4-------4---|
|-2---------------2---------------|-2---------------2---------------|

  |         |       |       |         |       |       |       |
|-----------------------------------|---------------------------------|
|-2h3p2-----2---------------2-3-5---|-2-------2---------------5-3---3-|
|---------------------------------4-|-----------------------------4---|
|-------4---------------------------|-----4---------------------------|
|-----------------------------------|---------------------------------|
|-----------------------------------|---------------------------------|
|
|-----------------------------------|---------------------------------|
|-----------------------------------|---------------------------------|
|-----------------------------------|---------------------------------|
|-----------4---------------4-------|---------4---------------4-------|
|-------4-------4-------4-------4---|-----4-------4-------4-------4---|
|-2-----------------2---------------|-2---------------2---------------|

  |       |       |       |         |       |       |       |
|-------------------------------2-|-4-------4-------4-------5-------|
|-2-------2---------------2-3-5---|---------------------------------|
|---------------------------------|---------------------------------|
|-----4---------------------------|-----4-------4-------4-------4---|
|---------------------------------|---------------------------------|
|---------------------------------|---------------------------------|
|
|---------------------------------|---------------------------------|
|---------------------------------|---------------------------------|
|---------------------------------|---------------------------------|
|---------4---------------4-------|---------4---------------4-------|
|-----4-------4-------4-------4---|-----4-------4-------4-------4---|
|-2---------------2---------------|-2---------------2---------------|

  |       |       |       |         |       |
|-2-------4---------------2-------|-----------------|
|-----------------5---------------|-3-------5-------|
|---------------------------------|-----------------|
|-----4-------4-------4-------4---|-----4-------4---|
|---------------------------------|-----------------|
|---------------------------------|-----------------|
|
|---------------------------------|-----------------|
|---------------------------------|-----------------|
|---------------------------------|-----------------|
|---------4---------------4-------|---------4-------|
|-----4-------4-------4-------4---|-----4-------4---|
|-2---------------2---------------|-2---------------|


Outro
  |         |       |       |         |       |       |       |
|-----------------------------------|---------------------------------|
|-2h3p2-----2---------------2-3-5---|-2-------2---------------5-3---3-|
|---------------------------------4-|-----------------------------4---|
|-------4---------------------------|-----4---------------------------|
|-----------------------------------|---------------------------------|
|-----------------------------------|---------------------------------|
|
|-----------------------------------|---------------------------------|
|-----------------------------------|---------------------------------|
|-----------------------------------|---------------------------------|
|-----------4---------------4-------|---------4---------------4-------|
|-------4-------4-------4-------4---|-----4-------4-------4-------4---|
|-2-----------------2---------------|-2---------------2---------------|

  |       |       |       |         |       |       |       |
|---------------------------------|---------------------------------|
|-2-------2---------------2-3-5---|-2-------2---------------5-3---3-|
|-------------------------------4-|-----------------------------4---|
|-----4---------------------------|-----4---------------------------|
|---------------------------------|---------------------------------|
|---------------------------------|---------------------------------|
|
|---------------------------------|---------------------------------|
|---------------------------------|---------------------------------|
|---------------------------------|---------------------------------|
|---------4---------------4-------|---------4---------------4-------|
|-----4-------4-------4-------4---|-----4-------4-------4-------4---|
|-2---------------2---------------|-2---------------2---------------|

  |       |       |       |         |       |       |       |
|-----------------0---------------|-0---------------0---------------|
|-2-------2---------------2-------|---------2---------------2-------|
|---------------------------------|---------------------------------|
|-----4-------4-------4-------4---|-----4-------4-------4-------4---|
|---------------------------------|---------------------------------|
|---------------------------------|---------------------------------|
|
|---------------------------------|---------------------------------|
|---------------------------------|---------------------------------|
|---------------------------------|---------------------------------|
|---------4---------------4-------|---------4---------------4-------|
|-----4-------4-------4-------4---|-----4-------4-------4-------4---|
|-2---------------2---------------|-2---------------2---------------|

  |       |       |       |         |       |       |       |
|-0---------------0---------------|-0---------------0---------------|
|---------2---------------2-------|---------2---------------2-------|
|---------------------------------|---------------------------------|
|-----4-------4-------4-------4---|-----4-------4-------4-------4---|
|---------------------------------|---------------------------------|
|---------------------------------|---------------------------------|
|
|---------------------------------|---------------------------------|
|---------------------------------|---------------------------------|
|---------------------------------|---------------------------------|
|---------4---------------4-------|---------4---------------4-------|
|-----4-------4-------4-------4---|-----4-------4-------4-------4---|
|-2---------------2---------------|-2---------------2---------------|

  |       |       |       |
|-0---------------0---------------|
|---------2---------------2-------|
|---------------------------------|
|-----4-------4-------4-----------|
|---------------------------------|
|---------------------------------|
|
|---------------------------------|
|---------------------------------|
|---------------------------------|
|---------4---------------4-------|
|-----4-------4-------4-----------|
|-2---------------2---------------|

Добавлено: 16.04.2016
Другие материалы по этой песне:
  • Аккорды и текст

Страница создана 16.04.2016
http://primanota.ru/strunz-and-farah/green-mists-chords.htm
Привет, Гость.
Предлагаем пройти революционный курс по гитаре.
Подарок от PrimaNota.Ru, забирай!