PrimaNota.ru - самый крупный в мире бесплатный архив песенных текстов, аккордов, табулатур и нот


Strunz And Farah - Ecos - таба, видео

Регистрация Запомнить меня
Войти через:  Facebook Google Twitter Vk Yandex Mail.ru

Strunz And Farah - Ecos - таба, видео

Печатать
Просмотров: 63


Strunz amp; Farah's    Ecos       Tabs By  E.Walker




Below are the acurate chord progressions of Samp;F's awesome comp  ECOS .
The top chord triad arpeggio progression  (Tab) is Jorge Strunz.

Em - pick the 5th,root,3rd / Bm - pick the root, 5th, root / Bbm - pick
     the root, 5th, root, 3rd /

Am - pick the root, 5th, root, 3rd /  Em - pick the root, 5th, root, 3rd /
     Cmaj - pick the root, 3rd , 5th, root

B7 - pick the root, 3rd , 7th /  Em - full.

The bottom chord progression is Ardeshir Farah.
These two guitar virtuosos are known for their magical guitar blend.
I beit lucious smooth chords...melodies or their sizziling solos 

Stay tuned guitar lovers for I have transcribed most of their killer
comps  Including their mind blowing solos.....



Em   Bm  Bm Bbm Am Em C B7 Em                  Em   Am   B7   Em
[Em7 Bm7 Bm7 Bbm7 Am7 Em7 Cmaj7 B7 Em]

|-----------7---7---7---6---5---0---0---2---0--|-----------7-----5-----7-----7----|
|-----------8---7---7---6---5---0---1---0---0--|-----------8-----5-----7-----8----|
|-----------9---7---7---6---5---0---0---2---0--|-----------9-----5-----8-----9----|
|-----------9---9---9---8---7---2---2---1---2--|-----------9-----7-----7-----9----|
|-----------7---9---9---8---7---2---3---2---2--|-----------7-----7-----9-----7----|
|---------------7---7---6---5---0-----------0--|-----------------5-----7----------|

      Em   Am   B7   Em        Em   Am   B7   Em

|------7------5------7------7-----|------7------5------7------7-----|
|------8------5------7------8-----|------8------5------7------8-----|
|------9------5------8------9-----|------9------5------8------9-----|
|------9------7------7------9-----|------9------7------7------9-----|
|------7------7------9------7-----|------7------7------9------7-----|
|-------------5------7------------|-------------5------7------------|

     Em   Am   B7   Em    Em  Am  D7 G CM7 Am C B7  ( Bridge )

|------7------5------7------7-----|---7---5---5---3---3---0---0---2--|
|------8------5------7------8-----|---8---5---7---3---5---1---1---0--|
|------9------5------8------9-----|---9---5---5---4---4---2---0---2--|
|------9------7------7------9-----|---9---7---7---5---5---2---2---1--|
|------7------7------9------7-----|---7---7---5---5---3---0---3---2--|
|-------------5------7------------|-------5-------3------------------|

 Em  Am  D7 G CM7 Am C B7  Em

|---7---5---5---3---3---0---0---2---0--|
|---8---5---7---3---5---1---1---0---0--|
|---9---5---5---4---4---2---0---2---0--|
|---9---7---7---5---5---2---2---1---2--|
|---7---7---5---5---3---0---3---2---2--|
|-------5-------3-------------------0--|


Добавлено: 02.09.2013
Другие материалы по этой песне:
  • Аккорды и текст

Страница создана 02.09.2013
http://primanota.ru/strunz-and-farah/ecos-chords.htm
Привет, Гость.
Предлагаем пройти революционный курс по гитаре.
Подарок от PrimaNota.Ru, забирай!