PrimaNota.ru - самый крупный в мире бесплатный архив песенных текстов, аккордов, табулатур и нот


Strunz And Farah - Caracol - таба, видео

Регистрация Запомнить меня
Войти через:  Facebook Google Twitter Vk Yandex Mail.ru

Strunz And Farah - Caracol - таба, видео

Печатать
Просмотров: 141
First correction

  Tabbed by:  cristolarrta@hotmail.com
     Artist:  Strunz and Farah
      Album:  Americas
       Song:  Caracol-Track 1.


Guitar (Left Channel):  Jorge Strunz Oreamuno
Guitar(Right Channel):  Ardeshir Farah

     A very enchanting piece, first correction, hope you enjoy it.
For now just this brief thing, short but good.  I hope someone
else dares to tab something of these guitar monsters.  This is my
second contribution about S & F, also my fourth tab.  Later I will
add more on it.  Maybe another tab later, for now only this
correction, well bye.

The song perse, first seconds there a percussion instruments and
whistles recreatings the sounds of a rainforest, after that S&F
guitars appears performing what it is below.  This tab is intended
mainly to be played by one guitar, any way on a duo will be easier.



                            INTRO
                            -----

               Play the chord(second guitar)
                      D                                     D
e|--2s3-0-3--2-0-2--2s3s2------2-3-2--------3-5-3--2-0-2--2s3s2-----|
B|-------------------------3-5-------5-3-5----------------------3-5-|
G|------------------------------------------------------------------|
D|------------------------------------------------------------------|
A|------------------------------------------------------------------|
E|------------------------------------------------------------------|
     You could choose between the chord D or the sweeps 2s3s2.


                                           D
e|-2-3-2--------3-5s7-5-3--3-5-3--2-0-2--2s3s2------2-3-2-----------|
B|--------5-3-5--------------------------------3-5-------5-3-5------|
G|------------------------------------------------------------------|
D|------------------------------------------------------------------|
A|------------------------------------------------------------------|
E|------------------------------------------------------------------|


                                D
e|-3-5-5s7-5-3-7--2-3-5-3-2-5--2s3s2------2-3-2-----------------|
B|-----------------------------------3-5-------5-3-5------------|
G|--------------------------------------------------------------|
D|--------------------------------------------------------------|
A|--------------------------------------------------------------|
E|--------------------------------------------------------------|




E|----2-3-2----2-3-2----2-3-2-------2----------------------------|
B|--5-------5--------5--------5-4-5------------------------------|
G|---------------------------------------------------------------|
D|---------------------------------------------------------------|
A|---------------------------------------------------------------|
E|---------------------------------------------------------------|



e|---------------------------------------------------------------|
B|---------------------------------------------------------------|
G|---------------------------------------------------------------|
D|---------------------------------------------------------------|
A|---------------------------------------------------------------|
E|---------------------------------------------------------------|




           1)   Legend
                ======
                s - slide



           2)   Chords
                ======
                   D

               e|--2---------
               B|--3---------
               G|--2---------
               D|--0---------
               A|------------
               E|------------




Tab 1:  Acoustic Alchemy "Ballad for Kay" - a rearrangement.
Tab 2:  Acoustic Alchemy "Sira's Song".
Tab 3:  Strunz and Farah "Americas" - only the main chords.
Tab 4:  Strunz and Farah "Caracol".

     
Добавлено: 07.08.2013
Другие материалы по этой песне:
  • Аккорды и текст

Страница создана 07.08.2013
http://primanota.ru/strunz-and-farah/caracol-chords.htm
Привет, Гость.
Предлагаем пройти революционный курс по гитаре.
Подарок от PrimaNota.Ru, забирай!