PrimaNota.ru - самый крупный в мире бесплатный архив песенных текстов, аккордов, табулатур и нот


Strunz And Farah - Campera farah s - таба, видео

Регистрация Запомнить меня
Войти через:  Facebook Google Twitter Vk Yandex Mail.ru

Strunz And Farah - Campera farah s - таба, видео

Печатать
Просмотров: 76




                Farah Solo Campera


|--------12---12---11----8----7---|---------7----8----7----8----7---|
|---12----------------------------|---10----------------------------|
|---------------------------------|---------------------------------|
|---------------------------------|---------------------------------|
|---------------------------------|---------------------------------|
|---------------------------------|---------------------------------|




|---------------------------------|---------------------------------|
|----8----7----8----7-------------|---------------------------------|
|------------------------9----8---|------9--------------------------|
|---------------------------------|-------------9------8------9-----|
|---------------------------------|---------------------------------|
|---------------------------------|---------------------------------|





|----8----7----8----7-------------|---------7----7----7-------------|
|------------------------8----7---|----8-------------------8----7---|
|---------------------------------|---------------------------------|
|---------------------------------|---------------------------------|
|---------------------------------|---------------------------------|
|---------------------------------|---------------------------------|





|---------------------------------|------------------------------|
|---------7----8----7----8----7---|-------8-------7--------------|
|----9----------------------------|-----------------------9------|
|---------------------------------|------------------------------|
|---------------------------------|------------------------------|
|---------------------------------|------------------------------|





|---------------------------------|----------------------------|
|----8----7----8----7---------7---|---------8--------12--------|
|------------------------9--------|----------------------------|
|---------------------------------|----------------------------|
|---------------------------------|----------------------------|
|---------------------------------|----------------------------|




|---12----7---12----7---------7---|---12----7---------7---12----7---|
|-----------------------10--------|-------------10------------------|
|---------------------------------|---------------------------------|
|---------------------------------|---------------------------------|
|---------------------------------|---------------------------------|
|---------------------------------|---------------------------------|





|---------7---10----7---------7---|---10----7---------7---12----7---|
|---10------------------10--------|-------------10------------------|
|---------------------------------|---------------------------------|
|---------------------------------|---------------------------------|
|---------------------------------|---------------------------------|
|---------------------------------|---------------------------------|





|---------7----8----7-------------|---------------------------------|
|---10------------------10----8---|----7---10----8----7-------------|
|---------------------------------|------------------------9----8---|
|---------------------------------|---------------------------------|
|---------------------------------|---------------------------------|
|---------------------------------|---------------------------------|




|---------------------------------|----------------------------------|
|---------7----8---10----8----7---|-----------7-----8-----7----------|
|----9----------------------------|-----9-----------------------9----|
|---------------------------------|----------------------------------|
|---------------------------------|----------------------------------|
|---------------------------------|----------------------------------|





|---12---11-------------15---14---|----12----11----12----14----------|
|-------------12---11-------------|----------------------------12----|
|---------------------------------|----------------------------------|
|---------------------------------|----------------------------------|
|---------------------------------|----------------------------------|
|---------------------------------|----------------------------------|


|---------------------------------|----------------------------|
|---13----8---12----8----7--------|---------8---------7--------|
|-----------------------------9---|----------------------------|
|---------------------------------|----------------------------|
|---------------------------------|----------------------------|
|---------------------------------|----------------------------|





|----7----8----7----8----7--------|---------------------------------|
|----------------------------10---|----7----8---10---10---11---10---|
|---------------------------------|---------------------------------|
|---------------------------------|---------------------------------|
|---------------------------------|---------------------------------|
|---------------------------------|---------------------------------|




|----8----7----8----7-------------|---------------------------------|
|-----------------------10----8---|----7---10----8----7-------------|
|---------------------------------|------------------------9----8---|
|---------------------------------|---------------------------------|
|---------------------------------|---------------------------------|
|---------------------------------|---------------------------------|




|---------------------------------|---------------------------------|
|---------7----8----7---------7---|----8----7----8----7-------------|
|----9-------------------9--------|------------------------9----7---|
|---------------------------------|---------------------------------|
|---------------------------------|---------------------------------|
|---------------------------------|---------------------------------|





|---------------------------------|---------------------------------|
|---------------------------------|-----------------------------7---|
|---------------------------------|-------------------7----9--------|
|------7-----10------9------7-----|----7----9---10------------------|
|---------------------------------|---------------------------------|
|---------------------------------|---------------------------------|





|-----------------------------7---|----8----7-------------------7---|
|----8---10----7----8---10--------|-------------10----8----7--------|
|---------------------------------|---------------------------------|
|---------------------------------|---------------------------------|
|---------------------------------|---------------------------------|
|---------------------------------|---------------------------------|






|---12---12---12---11---12---11---|--------------------------------------|
|---------------------------------|---13---12---11---13---12---11---12---|
|---------------------------------|--------------------------------------|
|---------------------------------|--------------------------------------|
|---------------------------------|--------------------------------------|
|---------------------------------|--------------------------------------|




Добавлено: 04.01.2014
Другие материалы по этой песне:
  • Аккорды и текст

Страница создана 04.01.2014
http://primanota.ru/strunz-and-farah/campera-farah-s-chords.htm
Привет, Гость.
Предлагаем пройти революционный курс по гитаре.
Подарок от PrimaNota.Ru, забирай!