PrimaNota.ru - самый крупный в мире бесплатный архив песенных текстов, аккордов, табулатур и нот


Strung Out - Whole Satellite - таба, видео

Регистрация Запомнить меня
Войти через:  Facebook Google Twitter Vk Yandex Mail.ru

Strung Out - Whole Satellite - таба, видео

Печатать
Просмотров: 73
Whole Satellite tab by Smerdel  (Haagsemi@aol.com)

This is best accompanied by notepad.  G paste it in there you tards.
Ok. This is the whole thing in order. I did not tab out the strumming rhythm 
because even my ass could figure that out. I think it sounds aboot 85% 
correct. Please tell me what you think of this. Be very critical. This is in full 
d-tuning.

Intro(Bass) 
d---------------------------------
a---------------------------------
f----------------------------------
c-----------------------------------
g------------------------------------
d-10--then strum--10-9-7-5---10-9-12-10----

Intro(Guitar) 
d---------------------------------
a---------------------------------
f-7--6--7--9--7--6----------------------
c--------------------7---------------
g-5--4--5--7--5--4-------------------------
d--------------------5-----------------

then just strum the same as the bass intro on the guitar

For the first half of the verse palm mute and strum intro
then strum second part of the verse

"G I hope this letter it finds you well" 
d---------------------------------
a---------------------------------
f--7--------------------------------
c--7---------------------------------
g--5----------------------------------
d-------------------------------------

"Everything I want to say" 
d---------------------------------
a---------------------------------
f----------------------------------
c--7---------------------------------
g--7----------------------------------
d--5-----------------------------------

repeat that twice then play the, I guess, pre-chorus

"Someday I'll thank you if I see you around"
d---------------------------------
a---------------------------------
f-----7-6-9-7-6-7-----------------------
c--5---------------------------------
g--5--5-4-7-5-4-5---------------------------
d--3-----------------------------------

"But for now I'll just keep this letter to myself"
d---------------------------------
a---------------------------------
f-----7-6---------------------------
c--5-------9-7-------------------------
g--5--5-4-------------------------------
d--3-------7-5---------------------------

"In a song I'll probably never sing for you"
palm mute_________________________________
d-----------------------5------5---------------
a------5-----5-------------8-7----8-7-5------
f-12-----7-6---7-6-4---------------------7-----
c-12------------------7----------------------
g-10------------------------------------------
d-------------------------------------------------

"Like a satellite"
d---------------------------------
a---------------------------------
f-----7--6--7--------------------
c--5--------------------------------
g--5--5--4--5------------------------
d--3----------------------------------

"Spinning round my head and sound"
Rhythm chords Lead chords
d---------------------------------------------------
a--------------------------------------------------
f--7--------------------11--12--9---11--12--7----
c--7---7--9--5-------------------------------------
g--5---7--9--5-----------9--10--7----9--10--5------
d------5--7--3--------------------------------------

"When your 16 and your full of pain and nothing matters"
Harmonic fill
d---------------------------------------
a-----7--------7----------------------
f---7----7---7----7-----------------------
c------------------------------------------
g--------------------------------------
d-------------------------------------

then pickslide into the second part of the verse
and repeat that twice again 

then palm mute this into the pre-chorus
d---------------------------------
a---------------------------------
f----------------------------------
c--7---------------------------------
g--7----------------------------------
d--5-----------------------------------

"Like a song I won't forget, oh satellite spinning round"
repeat the lead chords 4 times, rhythm chords up to you
d------------------------------------------
a-----------------------------------------
f-11-12--9---11-12--7--------7---------------
c----------------------------7--7--9--5-------
g--9-10--7----9-10--5--------5--7--9--5--------
d-------------------------------5--7--3------

then hit once softly and play this fill
d---------------------------------
a--------8-7-5-3-2-3--------------------
f--7------------------2--------------
c--7----------------------------------
g--5-----------------------------------
d-------------------------------------


then palm mute slightly less and less until no more
play each one twice
"When we're all grown up and looking for that anger"
d-----------------------------------------------------
a---------------------------888------888------88-----
f--------------------------------777------777-----77--
c--555-----555-----55--------------------------------
g------555-----555----55------------------------
d-----------------------------------------------------

"All this imagery of sound" "In words that" play 2 times 
d---------------------------------
a---------------------------------
f--7--6----------12-------------------
c--7--6---9--7---12-----------------------
g--5--4---9--7---10------------------------
d---------7--5--------------------------

"G watch me find myself"
palm mute__________________________________________
d---------------------------------5-------------------
a--------------5------5-------------8-7-5------------
f-7--6-----------7-6----7-6-4-------------7-6-4-----
c-7--6--9--7--------------------7-----------------7--
g-5--4--9--7-----------------------------------------
d-------7--5-----------------------------------------

"Again now"
d---------------------------------
a---------------------------------
f-----7--6--7------------------------
c--5---------------------------------
g--5--5--4--5----------------------------
d--3-----------------------------------

This is the last breakdown .=palm mute
Guitar One
d----------------------------------------------
a----------------------------------------------
f-7----7-6-------7-------7--------7-6---slide down-
c-7-.-------.-.-----.-.-----.-.------------------
g-5-5-------5-5-----5-5-----5-5------------------
d---------------------------------------------

d----------------------------------------------
a------------------------------------------
f--4-------4-----------.---.-------------
c----.-.-------.-.---7-7-7-7-7--------------------
g----2-2-------2-2---7-7-7-7-7------------
d--------------------5-5-5-5-5-------------

Guitar 2
d--10-10-10---10-9-9---9-7-7---7-5-5-----------
a----------------------------------------------
f---------------------------------------------
c----------------------------------------------
g------------------------------------------------
d-----------------------------------------------

Throw in some harmonics and a little rhythm to the second guitar and I'd say 
she's done 

The last part is a little off I know but I can work with it so you can too. 
Please tell me what you think. I think it sounds ok. At least good enough to 
share with others because I know people would like to know how to play this 
song. G don't na say me for trying. You create something. You piece of @#%$. 
     
Добавлено: 24.06.2013
Другие материалы по этой песне:
  • Аккорды и текст

Страница создана 24.06.2013
http://primanota.ru/strung-out/whole-satellite-chords.htm
Привет, Гость.
Предлагаем пройти революционный курс по гитаре.
Подарок от PrimaNota.Ru, забирай!