PrimaNota.ru - самый крупный в мире бесплатный архив песенных текстов, аккордов, табулатур и нот


Strung Out - Pleather - текст песни, таба, видео

Регистрация Запомнить меня
Войти через:  Facebook Google Twitter Vk Yandex Mail.ru

Strung Out - Pleather - текст песни, таба, видео

Печатать
Просмотров: 89
-------------------------------------------------------------------------------
                             Pleather - Strung Out
-------------------------------------------------------------------------------
Tabbed by: Mr. Pilkington
E-mail:matthewsmerdel@att.net

Tuning:DGCFAD (ignore the tuning on the tab as I am too lazy to change it.  This song is 
in D tuning.)
I also will not be tabbing out the rhythm because it is easy to listen to and figure
out. So here's my treat to everyone and I'm sure it's at least 99% correct.  So have fun
and send me an email if you want any other songs not on here.

Intro
e|---------------------------------------------------------------------------|
B|---------------------------------------------------------------------------|
G|--88--88--9--99--9--99-------88--88--9-------------------------------------|
D|--99--99--9--99--9--99--x3---99--99--9-------------------------------------|
A|--77--77--7--77--7--77-------77--77--7-------------------------------------|
E|---------------------------------------------------------------------------|

Next part and verse
e|----------------------------------------------------------------------------|
B|----------------------------------------------------------------------------|
G|--9-------------------------------------------------------------------------|
D|--9----9\7---9---7----------------------------------------------------------|
A|--7----9\7---9---7----------------------------------------------------------|
E|-------7\5---7---5----------------------------------------------------------|
        slide down wherever you like here, but quickly back up

On the first singing part do this once then it's just the verse repeated
e|----------------------------------------------------------------------------|
B|----------------------------------------------------------------------------|
G|--9-------------------------------------------------------------------------|
D|--9-------------------------------------------------------------------------|
A|--7-------------------------------------------------------------------------|
E|-------7\/7~--5~--3~--------------------------------------------------------|


Gone for a drive...
e|-------------------------------------------------------------------------|
B|------------99910999--9991099--------------------------------------------|
G|--6---------9999-999--9999-99----6-------------9-------------------------|
D|--6---7-----999--999--999--99----6---7---9-----9-------------------------|
A|--4---7--------------------------4---7---9-----7-------------------------|
E|------5------------------------------5---7-------------------------------|

Octave part(duh)
e|------------------------------------------------------------------------|
B|------------------------------------------------------------------------|
G|--9--11--13---14-13-11---4---8---9---11-9-8-----------------------------|
D|------------------------------------------------------------------------|
A|--7--9---11---12-11-9----2---6---7---9--7-6-----------------------------|
E|------------------------------------------------------------------------|

e|-------------------------------------------------------------------------|
B|-------------------------------------------------------------------------|
G|--6--8--9---13-11-13--14-13-11---14-13-11-9------------------------------|
D|---------------------------------14-13-11-9------------------------------|
A|--4--6--7---11-9--11--12-11-9----12-11-9--7------------------------------|
E|-------------------------------------------------------------------------|


Back to the verse(throw in some palm muting, just listen to get it)
e|---------------------------------------------------------------------|
B|---------------------------------------------------------------------|
G|--9------------------------------------------------------------------|
D|--9---9\/9---7-------------------------------------------------------|
A|--7---9\/9---7-------------------------------------------------------|
E|------7\/7---5-------------------------------------------------------|


Gone for a drive...
e|-------------------------------------------------------------------------|
B|------------99910999--9991099--------------------------------------------|
G|--6---------9999-999--9999-99----6-------------9-------------------------|
D|--6---7-----999--999--999--99----6---7---9-----9-------------------------|
A|--4---7--------------------------4---7---9-----7-------------------------|
E|------5------------------------------5---7-------------------------------|


Let me steer us home...
e|--------------------------------------------------------------------------|
B|------------99910999--9991099-------------99910999------------------------|
G|--6---------9999-999--9999-99----6--------9999-999--repeat-till-done------|
D|--6---7-----999--999--999--99----6---7----999--999------------------------|
A|--4---7--------------------------4---7------------------------------------|
E|------5------------------------------5------------------------------------|


Repeat this as necessary( at one time you palm mute the E chord, just listen)
e|------------------------------------------------------------------------|
B|------------------------------------------------------------------------|
G|--88-88--9-99-9-99--88-88--9-99-9-99--99-99-8-88-9-8-6------------------|
D|--99-99--9-99-9-99--99-99--9-99-9-99--99-99-9-99-------9----------------|
A|--77-77--7-77-7-77--77-77--7-77-7-77--77-77-7-77------------------------|
E|------------------------------------------------------------------------|

It's gettin' easier to...
e|-------------------------------------------------------------------------|
B|-------------------------------------------------------------------------|
G|--6------------9----11---13---14--16-------------------------------------|
D|--6---7---9--------------------------------------------------------------|
A|--4---7---9----7----9----11---12--14-------------------------------------|
E|------5---7--------------------------------------------------------------|

I look inside myself and...
e|-------------------------------------------------------------------------|
B|-------------------------------------------------------------------------|
G|--6------------99-99-99989-----------------------------------------------|
D|--6---7---9----99-99-99999-----------------------------------------------|
A|--4---7---9----77-77-77777-----------------------------------------------|
E|------5---7--------------------------------------------------------------|
************************************

I took some liberties and this is just a place to start, even though it is, with one
guitar, pretty damn accurate.  Have fun with it and remember to email with any Strung Out
song requests.


| /   slide up
| \   slide down
| h   hammer-on
| p   pull-off
| ~   vibrato
| +   harmonic
| x   Mute note
| b   Bend
| pb  Pre-bend
| br  Bend release
| pbr Pre-bend release
| brb Bend release bend

************************************
Добавлено: 02.10.2013
Другие материалы по этой песне:
  • Аккорды и текст

Страница создана 23.06.2012
http://primanota.ru/strung-out/pleather-chords.htm
Привет, Гость.
Предлагаем пройти революционный курс по гитаре.
Подарок от PrimaNota.Ru, забирай!