PrimaNota.ru - самый крупный в мире бесплатный архив песенных текстов, аккордов, табулатур и нот


Strung Out - Never Speak Again - текст песни, таба, видео

Регистрация Запомнить меня
Войти через:  Facebook Google Twitter Vk Yandex Mail.ru

Strung Out - Never Speak Again - текст песни, таба, видео

Печатать
Просмотров: 141
INTR.VERSE
E----7--8-7-5-10--8-7-5---7--8-7-5-10--8-7-5--:
B----8-10-8-7-12-10-8-7---8-10-8-7-12-10-8-7--:
G---------------------------------------------:
D---------------------------------------------:
A---------------------------------------------:
E---------------------------------------------:

E---------------------------------------------:
B—7-0-8-0-7-0-5-0-10-0-8-0-7-0-5-0------------:
G---------------------------------------------:
D---------------------------------------------:
A---------------------------------------------:
E---------------------------------------------:

E---------------------------------------------:
B—7-0-8-0-7-0-5-0-10-0-8-0-7-0-5-0------------:
G---------------------------------------------:
D---------------------------------------------:
A---------------------------------------------:
E---------------------------------------------:

E----7--8-7-5-10--8-7-5---7--8-7-5-10--8-7-5--:
B----8-10-8-7-12-10-8-7---8-10-8-7-12-10-8-7--:
G---------------------------------------------:
D---------------------------------------------:
A---------------------------------------------:
E---------------------------------------------:

E---------------------------------------------:
B—7-0-8-0-7-0-5-0-10-0-8-0-7-0-5-0------------:
G---------------------------------------------:
D---------------------------------------------:
A---------------------------------------------:
E---------------------------------------------:

E---------------------------------------------:
B—7-0-8-0-7-0-5-0-10-0-8-0-7-0-5-0------------:
G---------------------------------------------:
D---------------------------------------------:
A---------------------------------------------:
E---------------------------------------------:

E--7-7-7-7-777--5-5-5-5-555--7-7-7-7-777------:
B--8-8-8-8-888--7-7-7-7-777—-8-8-8-8-888------:
G---------------------------------------------:
D---------------------------------------------:
A---------------------------------------------:
E---------------------------------------------:

E--5-5-5-5-555--7-7-7-7-777--5-5-5-5-555------:
B--7-7-7-7-777--8-8-8-8-888--7-7-7-7-777------:
G---------------------------------------------:
D---------------------------------------------:
A---------------------------------------------:
E---------------------------------------------:

E--2-2-2-2-222--2-2-2-2-222-------------------:
B--3-3-3-3-333--3-3-3-3-333-------------------:
G---------------------------------------------:
D---------------------------------------------:
A---------------------------------------------:
E---------------------------------------------:

E----7--8-7-5-10--8-7-5---7--8-7-5-10--8-7-5--:
B----8-10-8-7-12-10-8-7---8-10-8-7-12-10-8-7--:
G---------------------------------------------:
D---------------------------------------------:
A---------------------------------------------:
E---------------------------------------------:

E---------------------------------------------:
B—7-0-8-0-7-0-5-0-10-0-8-0-7-0-5-0------------:
G---------------------------------------------:
D---------------------------------------------:
A---------------------------------------------:
E---------------------------------------------:

E---------------------------------------------:
B—7-0-8-0-7-0-5-0-10-0-8-0-7-0-5-0------------:
G---------------------------------------------:
D---------------------------------------------:
A---------------------------------------------:
E---------------------------------------------:

E----7--8-7-5-10--8-7-5---7--8-7-5-10--8-7-5--:
B----8-10-8-7-12-10-8-7---8-10-8-7-12-10-8-7--:
G---------------------------------------------:
D---------------------------------------------:
A---------------------------------------------:
E---------------------------------------------:

IT IS PLAYED QUICK MA OF THE NORMAL THING
E-7-0-0-0-8-0-0-0-7-0-0-0-5-0-0-0-10-0-0-0-8-0-0-0--:
B---------------------------------------------------:
G---------------------------------------------------:
D---------------------------------------------------:
A---------------------------------------------------:
E---------------------------------------------------:

E-7-0-0-0-5-0-0-0-12-0-0-0-10-0-0-0-8-0-0-0-7-0-0-0-:
B---------------------------------------------------:
G---------------------------------------------------:
D---------------------------------------------------:
A---------------------------------------------------:
E---------------------------------------------------:

E-8-0-0-0-7-0-0-0-5-0-0-0-3--:
B----------------------------:
G----------------------------:
D----------------------------:
A----------------------------:
E----------------------------:

E-------------------------------------------------:
B-------------------------------------------------:
G-5-5-5-5-5-5-5--7-7-7-7-7-7-7-7--9-9-9-9-9-9-9-9-:
D-5-5-5-5-5-5-5--7-7-7-7-7-7-7-7--9-9-9-9-9-9-9-9-:
A-3-3-3-3-3-3-3--5-5-5-5-5-5-5-5--7-7-7-7-7-7-7-7-:
E-------------------------------------------------:

E-------------------------------------------------:
B-------------------------------------------------:
G-12-12-12-12-12-12-12-12-12-12-12-12-12-12-12----:
D-12-12-12-12-12-12-12-12-12-12-12-12-12-12-12----:
A-10-10-10-10-10-10-10-10-10-10-10-10-10-10-10----:
E-------------------------------------------------:

E-------------------------------------------------:
B-------------------------------------------------:
G-11-11-11-11-11-11--9-9-9-9-9--11---7------------:
D-11-11-11-11-11-11--9-9-9-9-9--11---7------------:
A--9--9--9--9--9--9--7-7-7-7-7---9---5------------:
E-------------------------------------------------:

E--------------------------------------------------------:
B--------------------------------------------------------:
G-9999999----------------1212121212121212-99999999999999-:
D-9999999-10101010101010-1212121212121212-99999999999999-:
A-7777777-10101010101010-1010101010101010-77777777777777-:
E----------8-8-8-8-8-8-8---------------------------------:

E-------------------------------------------------:
B-------------------------------------------------:
G----------------1212121212121212-99999999999999--:
D-10101010101010-1212121212121212-99999999999999--:
A-10101010101010-1010101010101010-77777777777777--:
E--8-8-8-8-8-8-8----------------------------------:

E---------------------------------------------------:
B---------------------------------------------------:
G----------------1212121212121212-9999999--9---9--9-:
D-10101010101010-1212121212121212-9999999--9---9--9-:
A-10101010101010-1010101010101010-7777777--7---7--7-:
E--8-8-8-8-8-8-8------------------------------------:

E------------------:
B------------------:
G------------------:
D-101010101010--5--:
A-101010101010--5--:
E--8-8-8-8-8-8--3--:

E------------------------------:
B------------------------------:
G------------------------------:
D--5-----5--------9---10-------:
A--5-----5--------9---10-------:
E--3-----3--------7----8-------:

E--------------------------------------------------------:
B--------------------------------------------------------:
G--------------------------------------------------------:
D--------------------------------------------------------:
A--------------------------------------------------------:
E-3333333333333333333333/7777777777777777777/8888888888--:

SOLO
E----------------------------------------:
B----------------------------------------:
G-------------420------------020420------:
D-204050204050---4--204050024------4-----: X2
A----------------------------------------:
E----------------------------------------:

E-------------------------------------------------:
B-------------------------------------------------:
G-7-12-16-7-12-14-19-12-7-12-16-7-12-14-19-12-----:
D-------------------------------------------------:
A-------------------------------------------------:
E-------------------------------------------------:

E-------------------------------------------------:
B-------------------------------------------------:
G-7-12-16-7-12-14-19-12-7-12-16-7-24-23-21-19-----:
D-------------------------------------------------:
A-------------------------------------------------:
E-------------------------------------------------:

E-------------------------------------------------:
B-------------------------------------------------:
G-7-12-16-7-12-14-19-12-7-12-16-7-12-14-19-12-----:
D-------------------------------------------------:
A-------------------------------------------------:
E-------------------------------------------------:

E-------------------------------------------------:
B-------------------------------------------------:
G-7-12-16-7-12-14-19-12-24-23-19-16-17-12-14-12---:
D-------------------------------------------------:
A-------------------------------------------------:
E-------------------------------------------------:

E---------------------------------------121215-15-14-12-10:
B-12---10-------------------121213131515------------------:
G-----------12—11---9b----7b------------------------------:
D---------------------------------------------------------:
A---------------------------------------------------------:
E---------------------------------------------------------:

E---------------------------------------------------:
B-121512-121312-101210-8108-101210-8108-787-575-----:
G---------------------------------------------------:
D---------------------------------------------------:
A---------------------------------------------------:
E---------------------------------------------------:

E-------------------------------------------------------:
B-------------------------------------------------------:
G----------------55555555555555-----------------5555----:
D-55555555555555-55555555555555-55555555555555--5555----:
A-55555555555555-33333333333333-55555555555555--3333----:
E-33333333333333----------------33333333333333----------:

E-------------------------------------------------------:
B-------------------------------------------------------:
G--7b---------------------------------------------------:
D--7b---------------------------------------------------:
A--5b---------------------------------------------------:
E-------------------------------------------------------:

E--------------:
B--------------:
G--77--5--7-9--:
D--77--5--7-9--:
A--55--3--5-7--:
E--------------:

E--------------------------------------------------------:
B--------------------------------------------------------:
G-9999999----------------1212121212121212-99999999999999-:
D-9999999-10101010101010-1212121212121212-99999999999999-:
A-7777777-10101010101010-1010101010101010-77777777777777-:
E----------8-8-8-8-8-8-8---------------------------------:

E-------------------------------------------------:
B-------------------------------------------------:
G----------------1212121212121212-99999999999999--:
D-10101010101010-1212121212121212-99999999999999--:
A-10101010101010-1010101010101010-77777777777777--:
E--8-8-8-8-8-8-8----------------------------------:

E------------------------------------------------:
B------------------------------------------------:
G----------------1212121212121212-99999999999999-:
D-10101010101010-1212121212121212-99999999999999-:
A-10101010101010-1010101010101010-77777777777777-:
E--8-8-8-8-8-8-8---------------------------------:

E------------------------------------------------:
B------------------------------------------------:
G----------------1212121212121212-99999999999999-:
D-10101010101010-1212121212121212-99999999999999-:
A-10101010101010-1010101010101010-77777777777777-:
E--8-8-8-8-8-8-8---------------------------------:

ending
E--------------------------:
B--------------------------:
G--9-9--5b-5-5-5-5-5-------:
D--9-9--5b-5-5-5-5-5-5b----:
A--7-7--3b-3-3-3-3-3-5b----:
E--------------------3b----:

This song this dedicated for my friend Ignacio with a lot of affection and to my band 
all the people that you/they have helped us to leave ahead for that reason thank you song 
for pichi zerox shadow...
Any doubt or arrangement to my mail the_shadow_of_zerox@hotmail.com

This song is very Good to see if they can take out it since jajajajaja to my me
cost a lot to take out it to the hearing
Добавлено: 04.05.2012
Другие материалы по этой песне:

Страница создана 07.04.2012
http://primanota.ru/strung-out/never-speak-again-chords.htm
Привет, Гость.
Предлагаем пройти революционный курс по гитаре.
Подарок от PrimaNota.Ru, забирай!