PrimaNota.ru - самый крупный в мире бесплатный архив песенных текстов, аккордов, табулатур и нот


Strung Out - Katatonia - текст песни, таба, видео

Регистрация Запомнить меня
Войти через:  Facebook Google Twitter Vk Yandex Mail.ru

Strung Out - Katatonia - текст песни, таба, видео

Печатать
Просмотров: 121
-----------------------------------------------------------------------------
                             KATATONIA - Strung Out
-----------------------------------------------------------------------------Tabbed by: Nannarè

Tuning:C G C F A D
intro(00:00-00:09)   (00:09-00:19)                 (00:18-00:20)
 |------------------|-----10----------------------|---------------|
 |------------------|---8----11-11-11-10-10-10/11-|-13-13-11-10---|
 |------------------|-7---------------------------|---------------|
 |-5-5-x-x-x-8-8-8--|-----------------------------|---------------|
 |-5-5-x-x-x-6-6-6--|-----------------------------|---------------|
 |-5-5-x-x-x--------|-----------------------------|---------------|

verso(00:20-00:27)   (00:26-00:28)  (00:29-00:39)
|-------------------|--------------|----10---6--5--5/6--|--8--6--5--6--|
|-------------------|--------------|--8-----------------|--------------|
|-------------------|--------------|-7-----7--7---7-----|-7--7--7--7---|
|-5-5-5-8-8-8-5-5-5-|-10-8-7-------|--------------------|--------------|
|-5-5-5-6-6-6-3-3-3-|-8--6-5-------|--------------------|--------------|
|-5-5-5-------------|--------------|--------------------|--------------|

(00:39-00:49)                (00:50-00:58)
|----10-----8-----6-----5---|-----------------------------|----------|
|---8---8--8--8--8--8-8---8-|-----------------------------|----------|
|-7------7------7----7------|-----------------------------|----------|
|---------------------------|--5--5--5--5---5--5----5---5-|-10-8-7---|
|---------------------------|-------------6---6---6---6---|-8--6-5---|
|---------------------------|-5--5--5--5------------------|----------|

(00:59-01:09)
gt.1
     |--------------------------------------------------------|
     |--------------------------------------------------------|
     |--------------------------------------------------------|
     |-12-12/15-14-12-12/15-17-15-15-15-14-14-14-12-----------|
     |-10-10/13-12-10-10/13-15-13-13-13-12-12-12-10-----------|
     |--------------------------------------------------------|
gt.2
     |---------------|----------------|
     |---------------|----------------|
     |---------------|----------------|
     |-5-7/8-8-8-8-7-|-5-7/8-8-10-10--|
     |-5-5/6-6-6-6-5-|-5-5/6-6-8--8---|
     |-5-------------|-5--------------|

pseudo solo (1:31-1:41)
|---------------------------------------------|
|-11-11-11-11p10h11----13-13-11-10-13-11-10---|
|-------------------12------------------------|
|---------------------------------------------|
|---------------------------------------------|
|---------------------------------------------|

(1:41-1:52)
gt.1
     |--------------------------|
     |-11-10-11-10-11-10-11/13--|
     |--------------------------|
     |--------------------------|
     |--------------------------|
     |--------------------------|
gt.2
     |-10-8-10-8-10-10/11-|-12-13--|
     |--------------------|--------|
     |--------------------|--------|
     |--------------------|--------|
     |--------------------|--------|
     |--------------------|--------|

Note:
Ho provato a tirare giù il pezzo a orecchio dall'album Exile in Oblivion,
sicuramente ci saranno alcune imperfezioni m credo che il lavoro nel 
suo insieme sia abbastanza accurato. Ovviamente ognuno deve metterci 
del suo anche quando si trova la tablatura in rete. 
Qualsiasi cosa o commento è graditissimo!
Enjoy!!!

| /  slide up
| \  slide down
| h  hammer-on
| p  pull-off
| ~  vibrato
| +  harmonic
| x  Mute note
============================================================================
Добавлено: 08.07.2012
Другие материалы по этой песне:
  • Аккорды и текст

Страница создана 14.06.2012
http://primanota.ru/strung-out/katatonia-chords.htm
Привет, Гость.
Предлагаем пройти революционный курс по гитаре.
Подарок от PrimaNota.Ru, забирай!