PrimaNota.ru - самый крупный в мире бесплатный архив песенных текстов, аккордов, табулатур и нот


Strung Out - Cult Of The Subterranean - аккорды и текст, таба, видео

Регистрация Запомнить меня
Войти через:  Facebook Google Twitter Vk Yandex Mail.ru

Strung Out - Cult Of The Subterranean - аккорды и текст, таба, видео

Печатать
Просмотров: 119
Cult Of The Subterranean
Strung Out
-------------------------------------------------------------------------------
        CULT OF THE SUBTERRANEAN - Strung Out
-------------------------------------------------------------------------------
By:John McCorkindale (johnm@umail.ucsb.edu)
SOT Says, Three Cheers for John McCorkindale
Note: Drop to full D tuning
m= Mute
b#= bend note up to #th fret
9b11b9= bend one full step up, release.
h= Hammer on
...=Sustain
Intro
Guitar one plays below riff once, then guitar 2 comes in.
Guitar 1
d|---------------------------------------------------------------------------|
A|---------------------------------------------------------------------------|
F|-------4-------------------------------------------------------------------|
C|-------4-4-4-----------5-------------------------------0-0------6x---------|
G|-2-2-2-------2-2-------5-5-5-----------7-7-7-5-5-2-2-2-----0-2-------------|
D|-----------------3-3-3-------3-3-5-5-5-------------------------------------|
Guitar 2
d|---------------------------------------------------------------------------|
A|-3-3-3-2-2-2---------------------3-3-3-2-2-2-------3-3-3-3-2-4-------------|
F|-------------4-4-4p2-2-2-2-2-2-2-------------4-4-4--------------5x---------|
C|---------------------------------------------------------------------------|
G|---------------------------------------------------------------------------|
D|---------------------------------------------------------------------------|
d|---------------------------------------------------------------------------|
A|-------7-7-7---------------------------------------------------------------|
F|-4-4-4-------------7-7-7---------------------------------------------------|
C|-------------5-5-5-----------7-7-------------------------0h2-----2x--------|
G|-------------------------5-5-----------7-7-7-5-5-2-2-2-2-----2-------------|
D|---------------------------------5-5-5-------------------------------------|
pick scrape
d|---------------------------------------------------------------------------|
A|---7-----------------------------------------------------------------------|
F|-4-6---7---9-----999-77-4-----4--------------------------------------------|
C|-4-4-5-7-7-9-777-999-77-4-0---4--------------------------------------------|
G|-2---5-5-7-7-777-777-55-2---0-2--------------------------------------------|
D|-----3---5---555-----------------------------------------------------------|
Verse begins
d|---------------------------------------------------------------------------|
A|---------------------------------------------------------------------------|
F|-------4-------------------------------------------------------------------|
C|-------4-4-4-----------5-------------------------------0--------4x---------|
G|-2-2-2-------2-2-------5-5-5-----------7-7-7-5-5-2-2-2---0-2---------------|
D|-----------------3-3-3-------3-3-5-5-5-------------------------------------|
  strum. The number of chords are not writen to scale (where the arrows point
  to)
   >             <         >             <  >                          <         >                                   <     >                                              <         >                                                    <     >                                 9>11>12>11>9>7>9-9>11>12>10>12>11>9>11-V--Play-rest-of-measure-in-unison|
G|---------------------------------------------with-guitar-1-----------------|
D|-5>7>9->10>9->7>5>7-7>9->10>12>10>9->7>9-----------------------------------|
d|---------------------------------------------------------------------------|
A|-------7-7-7---------------------------------------------------------------|
F|-4-4-4-------------7-7-7---------------------------------------------------|
C|-------------5-5-5-----------7-7-----------------9-9-9-9-9-----------------|
G|-------------------------5-5-----------7-7-7-5-5-9-9-9-9-9-----------------|
D|---------------------------------5-5-5-----------7-7-7-7-7-----------------|
===============================================================================
Добавлено: 25.06.2012
Другие материалы по этой песне:

Страница создана 08.05.2012
http://primanota.ru/strung-out/cult-of-the-subterranean-chords.htm
Привет, Гость.
Предлагаем пройти революционный курс по гитаре.
Подарок от PrimaNota.Ru, забирай!