PrimaNota.ru - самый крупный в мире бесплатный архив песенных текстов, аккордов, табулатур и нот


Strong Bad - Trogdor - таба, бас-таба, видео

Регистрация Запомнить меня
Войти через:  Facebook Google Twitter Vk Yandex Mail.ru

Strong Bad - Trogdor - таба, бас-таба, видео

Печатать
Просмотров: 285
Уроки эстрадного вокала в Санкт-Петербурге
TROGDOR - Strong Bad

Solo tabbed by: MunkyZero
Email: munky.zero@yahoo.com

Tuning: Drop D (However, you can use standard tuning if you're only playing the solo)

It seemed like everyone wasn't completely sure about the solo, so I decided to figure it
myself. I'm pretty sure this 100% accurate or very close to it. But it's only for one
the guitars in the solo, not both. You can probably figure out the timing yourself.

e|--------------------------------------------------------|
B|---10---------------------------------------------------|
G|-------12-10-12-10-9-10-9----9--------------------------|
D|--------------------------12---10-12-10~--12~-----------|
A|--------------------------------------------------------|
D|--------------------------------------------------------|

e|--------------------------------------------------------|
B|--------------------------------------------------------|
G|----------10--12--10--12--10--9--10-9-----9-10--9~------|
D|---10-12-------------------------------12---------------|
A|--------------------------------------------------------|
D|--------------------------------------------------------|

e|----------10-------------10------------10------------10-|
B|-10-11-13-------10-11-13------10-11-13------10-11-13----|
G|--------------------------------------------------------|
D|--------------------------------------------------------|
A|--------------------------------------------------------|
D|--------------------------------------------------------|

e|-------12-13-12-12-10-13-13-13-13-15-13-15-13-10--------|
B|---13---------------------------------------------------|
G|--------------------------------------------------------|
D|--------------------------------------------------------|
A|--------------------------------------------------------|
D|--------------------------------------------------------|

e|---13-17-13-10-13-17-13-10-13-17-13-10-15-18-15-12------|
B|--------------------------------------------------------|
G|--------------------------------------------------------|
D|--------------------------------------------------------|
A|--------------------------------------------------------|
D|--------------------------------------------------------|

e|--15-18-15-12--17tttt20tttt22ttttttttttttt22~-----------|
B|--------------------------------------------------------|
G|--------------------------------------------------------|
D|--------------------------------------------------------|
A|--------------------------------------------------------|
D|--------------------------------------------------------|

| ~  held note
| t  tremolo picking

If you have questions or anything you want to say, feel free to e-mail me.

This is an update of the old tab. I'm trying this again, and hopefully it works this time.
Добавлено: 14.03.2012
Другие материалы по этой песне:

Страница создана 29.02.2012
http://primanota.ru/strong-bad/trogdor-chords.htm
Привет, Гость.
Предлагаем пройти революционный курс по гитаре.
Подарок от PrimaNota.Ru, забирай!